E |5---5-7- 3---3-5- 2---2-3- 0---0-2-|3---3-5- 2---2-3- 0---0-2- --------| / E |5---5-7- 3---3-5- 2---2-3- 0---0-2-|3---3-5- 2---2-3- 0---0-2- --------| /
busca

Inner Light

The Beatles

Tom: Eb (forma dos acordes no tom de D) Capotraste na 1ª casa
(capotraste na primeira casa)

E |-------- -------- -------- --------|-------- -------- -------- --------|
B |-----------------------------------|---------------------------------3-/
G |-----------------------------------|-----------------------------------|
D |-----------------------------------|-----------------------------------|
A |-----------------------------------|-----------------------------------|
E |-----------------------------------|-----------------------------------|

E |-------- -------- -------- --------|-------- --0-3-2- --7-5-7- --3-2-3-|
B |-----------------------------------|3---3-3-----------3--------3-------|
G |-----------------------------------|-----------------------------------|
D |-----------------------------------|-----------------------------------|
A |-----------------------------------|-----------------------------------|
E |-----------------------------------|-----------------------------------|

E |-------- -------- -------- --------|-------- -------- -------- --------|
B |------------------3----------------|-----------------------------------|
G |------------------2----------------|-----------------------------------|
D |------------------0----------------|-----------------------------------|
A |-----------------------------------|-----------------------------------|
E |-----------------------------------|-----------------------------------|

E |-------- -------- -------- --------|-------- 5H7P5P0- 2H3P2--- 0H2P0---|
B |12-~-----10-~-----8-~------7H8P7P5-|8H10P8P7---------------3--------3--|
G |-----------------------------------|-----------------------------------|
D |-----------------------------------|-----------------------------------|
A |-----------------------------------|-----------------------------------|
E |-----------------------------------|-----------------------------------|

E |-------- -------- -------- --------|-------- -------- -------- --------|
B |3---3-3--3---3-3--3---3-3--3---3-3-|3---3-3--3---3-3--3---3-3--3---3-3-|
G |-----------------------------------|-----------------------------------|
D |-----------------------------------|-----------------------------------|
A |-----------------------------------|-----------------------------------|
E |-----------------------------------|-----------------------------------|

E |5---5-7- 3---3-5- 2---2-3- 0---0-2-|3---3-5- 2---2-3- 0---0-2- --------|
B |-----------------------------------|---------------------------3-------|
G |-----------------------------------|-----------------------------------|
D |-----------------------------------|-----------------------------------|
A |-----------------------------------|-----------------------------------|
E |-----------------------------------|-----------------------------------|

E |5-~----- 3-~----- 2-~----- 0---2---|3-~----- 2-~----- -------- --------|
B |-----------------------------------|------------------5/7\5/7\-3-------|
G |-----------------------------------|-----------------------------------|
D |-----------------------------------|-----------------------------------|
A |-----------------------------------|-----------------------------------|
E |-----------------------------------|-----------------------------------|

E |-------5P3---3--- 2---2--- 0---0-2-|3---3--- 2---2-3- 0---0-2- --------|
B |----3------------------------------|---------------------------3-------|
G |-----------------------------------|-----------------------------------|
D |-----------------------------------|-----------------------------------|
A |-----------------------------------|-----------------------------------|
E |-----------------------------------|-----------------------------------|

E |10-~---- 8-~----- 7-~----- 5-~-----|3-~----- 23202--- 020-020- ----2-3-|
B |-----------------------------------|---------------------3---3-3-------|
G |-----------------------------------|-----------------------------------|
D |-----------------------------------|-----------------------------------|
A |-----------------------------------|-----------------------------------|
E |-----------------------------------|-----------------------------------|

e|10101010 8-8-8-8- 7-7-7-7- 5-5-5-5-|3-3-3-3- 23202--- 020-020- ----2-3-|
B |-----------------------------------|---------------------3---3-3-------|
G |-----------------------------------|-----------------------------------|
D |-----------------------------------|-----------------------------------|
A |-----------------------------------|-----------------------------------|
E |-----------------------------------|-----------------------------------|

E |5------- -------- -------- --------|-------- -------- -------- --------|
B |-----------------------------------|-----------------------------------|
G |-----------------------------------|-----------------------------------|
D |-----------------------------------|-----------------------------------|
A |-----------------------------------|-----------------------------------|
E |-----------------------------------|-----------------------------------|

E |5------- -------- -------- --------|-------- -------- -------- --------|
B |-----------------------------------|-----------------------------------|
G |-----------------------------------|-----------------------------------|
D |-----------------------------------|-----------------------------------|
A |-----------------------------------|-----------------------------------|
E |-----------------------------------|-----------------------------------|

E |-------- -------- -------- --------|-------- ----8--- 7-8-5-7- --5-----|
B |-----------------------------------|---------------------------8---7-8-|
G |-----------------------------------|-----------------------------------|
D |-----------------------------------|-----------------------------------|
A |-----------------------------------|-----------------------------------|
E |-----------------------------------|-----------------------------------|

E |-------- -------- -------- --------|-------- ----7--- -------- --------|
B |---------7------------7----8-------|7---8----10------------------------|
G |7---9--------7----9------------9---|------------------9----------------|
D |-----------------------------------|-----------------------------------|
A |-----------------------------------|-----------------------------------|
E |-----------------------------------|-----------------------------------|

E |-------- -------- -------- --------|-------- -------- -------- --------|
B |3-----------------1----------------|3----------------------------------|
G |2-----------------2----------------|4----------------------------------|
D |0-----------------0----------------|0----------------------------------|
A |-----------------------------------|-----------------------------------|
E |-----------------------------------|-----------------------------------|

E |5------- -------- -------- --------|-------- ----8--- 7-8-5-7- --5-----|
B |-----------------------------------|---------------------------8---7-8-|
G |-----------------------------------|-----------------------------------|
D |-----------------------------------|-----------------------------------|
A |-----------------------------------|-----------------------------------|
E |-----------------------------------|-----------------------------------|

E |-------- -------- -------- ----7---|-------- -------- -------- --------|
B |---------7---8--------7----10------|8----------------------------------|
G |7---9-------------9----------------|-----------------------------------|
D |-----------------------------------|-----------------------------------|
A |-----------------------------------|-----------------------------------|
E |-----------------------------------|-----------------------------------|

E |-------- -------- -------- --------|-------- -------- -------- --------|
B |3-----------------1----------------|3----------------------------------|
G |2-----------------2----------------|4----------------------------------|
D |0-----------------0----------------|0----------------------------------|
A |-----------------------------------|-----------------------------------|
E |-----------------------------------|-----------------------------------|

E |5------- -------- -------- --------|-------- ----8--- 7-8-5-7- --5-----|
B |-----------------------------------|---------------------------8---7-8-|
G |-----------------------------------|-----------------------------------|
D |-----------------------------------|-----------------------------------|
A |-----------------------------------|-----------------------------------|
E |-----------------------------------|-----------------------------------|

E |-------- -------- -------- --------|----5--- 7------- -------- --------|
B |---------7---8--------7----8-------|7------------5---------------------|
G |7---9-------------9------------9---|-----------------------------------|
D |-----------------------------------|-----------------------------------|
A |-----------------------------------|-----------------------------------|
E |-----------------------------------|-----------------------------------|

E |-------- -------- -------- --------|-------- -------- -------- --------|
B |3-----------------1----------------|3----------------------------------|
G |2-----------------2----------------|4----------------------------------|
D |0-----------------0----------------|0----------------------------------|
A |-----------------------------------|-----------------------------------|
E |-----------------------------------|-----------------------------------|

E |-------- -------- -------- --------|-------- ----8--- 7---5-7- --------|
B |-----------------------------------|---------------------------8-------|
G |-----------------------------------|-----------------------------------|
D |-----------------------------------|-----------------------------------|
A |-----------------------------------|-----------------------------------|
E |-----------------------------------|-----------------------------------|

E |-------- -------- -------- 5---7---|-------- -------- -------- --------|
B |---------7---8--------7------------|8----------------------------------|
G |7---9-------------9----------------|------------------7----------------|
D |-----------------------------------|-----------------------------------|
A |-----------------------------------|-----------------------------------|
E |-----------------------------------|-----------------------------------|

E |-------- -------- -------- --------|-------- -------- -------- --------|
B |3-----------------1----------------|3--------3-------------------------|
G |2-----------------2----------------|4--------0-------------------------|
D |0-----------------0----------------|0-----------------0----------------|
A |-----------------------------------|-----------------------------------|
E |-----------------------------------|-----------------------------------|

E |-------- -------- -------- --------|-------- -------- -------- --------|
B |8---7-------------8---7--------8---|7-----------------7----------------|
G |---------9---7-------------9-------|----9----7---9---------------------|
D |-----------------------------------|-----------------------------------|
A |-----------------------------------|-----------------------------------|
E |-----------------------------------|-----------------------------------|

E |-------- -------- -------- --------|-------- -------- -------- --------|
B |3--------------------------3-------|-----------------------------------|
G |0--------------------------2-------|-----------------------------------|
D |0--------------------------0-------|-----------------------------------|
A |-----------------------------------|-----------------------------------|
E |-----------------------------------|-----------------------------------|

E |-------- -------- -------- --------|-------- -------- -------- --------|
B |-----------------------------------|-----------------------------------|
G |-----------------------------------|-------------------------------7--/|
D |-----------------------------------|-----------------------------------|
A |-----------------------------------|-----------------------------------|
E |-----------------------------------|-----------------------------------|

E |-------- -------- -------- --------|-------- 7------- -------- --------|
B |7------------------------------7---|8---10-------10--------------------|
G |----7-------------7--------9-------|-----------------------------------|
D |--------10---9---------------------|-----------------------------------|
A |-----------------------------------|-----------------------------------|
E |-----------------------------------|-----------------------------------|

E |-------- -------- -------- --------|-------- -------- -------- --------|
B |3----------------------------------|1----------------------------------|
G |2----------------------------------|2----------------------------------|
D |0----------------------------------|0----------------------------------|
A |-----------------------------------|-----------------------------------|
E |-----------------------------------|-----------------------------------|

E |-------- -------- -------- --------|-------- -------- -------- --------|
B |-----------------------------------/8-~---------------8------------7P8R|
G |11-~--------------7-~------5-~-----|-----------------------------------|
D |-----------------------------------|-----------------------------------|
A |-----------------------------------|-----------------------------------|
E |-----------------------------------|-----------------------------------|

E |-------- -------- -------- --------|-------- -------- 12--14-- 15--17--|
B |11---------------------------------|---------12--15--------------------|
G |----12---------------------9---11--|12--14-----------------------------|
D |------------------10--12-----------|-----------------------------------|
A |-----------------------------------|-----------------------------------|
E |-----------------------------------|-----------------------------------|

E |-------- -------- -------- --------|-------- -------- -------- --------|
B |3-----------------3--------1-------|3----------------------------------|
G |2-----------------2--------2-------|0----------------------------------|
D |0-----------------0--------0-------|0----------------------------------|
A |-----------------------------------|-----------------------------------|
E |-----------------------------------|-----------------------------------|

E |-------- -------- -------- --------|
B |7----------------------------------|
G |-----------------------------------|
D |-----------------------------------|
A |-----------------------------------|
E |-----------------------------------|

E |15------ -------- -------- --------|
B |-----------------------------------|
G |-----------------------------------|
D |-----------------------------------|
A |-----------------------------------|
E |-----------------------------------|

E |-------- -------- -------- --------|
B |3----------------------------------|
G |2----------------------------------|
D |0----------------------------------|
A |-----------------------------------|
E |-----------------------------------|

E |10--1010 ------10 -------- --------|10--1010 ------10 -------- --------|
B |---------13--13---12--1213-10--1012|---------13--13---12--1213-10------|
G |-----------------------------------|-----------------------------------|
D |-----------------------------------|-----------------------------------|
A |-----------------------------------|-----------------------------------|
E |-----------------------------------|-----------------------------------|

E |-------- -------- 5-7875-- 7-81087-10121087- 5-7537-- 5-7535-/ 10------|
B |7-81087--8-912109------------------|-----------------------------------|
G |-----------------------------------|-----------------------------------|
D |-----------------------------------|-----------------------------------|
A |-----------------------------------|-----------------------------------|
E |-----------------------------------|-----------------------------------|

E |----1010 10--1010 ----1010 ----1010|----1010 --101010 --101010 --1010--|
B |-----------------------------------|-----------------------------------|
G |-----------------------------------|-----------------------------------|
D |-----------------------------------|-----------------------------------|
A |-----------------------------------|-----------------------------------|
E |-----------------------------------|-----------------------------------|

E |5---5-5- 3---3-3- 2---2-3- 0---0-2-|3---3-5- 2---2-3- 0---0-2- --------|
B |-----------------------------------|---------------------------3---3-3-|
G |-----------------------------------|-----------------------------------|
D |-----------------------------------|-----------------------------------|
A |-----------------------------------|-----------------------------------|
E |-----------------------------------|-----------------------------------|

e|10~-10~- 8~--8~-- 7~--7~-- 5~--5~--|3~--3~-- 2~--2~-- 0---0--- ----2-3-|
B |-----------------------------------|---------------------------3-------|
G |-----------------------------------|-----------------------------------|
D |-----------------------------------|-----------------------------------|
A |-----------------------------------|-----------------------------------|
E |-----------------------------------|-----------------------------------|

E |10--1010 8---8-~- 7---7-~- 5---5-~-|3---3-~- 2---2-~- 0---0--- ----2-3-|
B |-----------------------------------|---------------------------3-------|
G |-----------------------------------|-----------------------------------|
D |-----------------------------------|-----------------------------------|
A |-----------------------------------|-----------------------------------|
E |-----------------------------------|-----------------------------------|

E |5------- -------- -------- --------|-------- -------- -------- --------|
B |-----------------------------------|-----------------------------------|
G |-----------------------------------|-----------------------------------|
D |-----------------------------------|-----------------------------------|
A |-----------------------------------|-----------------------------------|
E |-----------------------------------|-----------------------------------|

E |5------- -------- -------- --------|-------- -------- -------- --------|
B |-----------------------------------|-----------------------------------|
G |-----------------------------------|-----------------------------------|
D |-----------------------------------|-----------------------------------|
A |-----------------------------------|-----------------------------------|
E |-----------------------------------|-----------------------------------|

E |-------- -------- -------- --------|-------- -------- -------- --------|
B |3----------------------------------|-----------------------------------|
G |2----------------------------------|-----------------------------------|
D |0----------------------------------|-----------------------------------|
A |-----------------------------------|-----------------------------------|
E |-----------------------------------|-----------------------------------|

E |-------- -------- -------- --------|-------- ----8--- 7-8-5-7- --5-----|
B |-----------------------------------|---------------------------8---7-8-|
G |-----------------------------------|-----------------------------------|
D |-----------------------------------|-----------------------------------|
A |-----------------------------------|-----------------------------------|
E |-----------------------------------|-----------------------------------|

E |-------- -------- -------- --------|-------- ----7--- -------- --------|
B |---------7------------7----8-------|7---8----10------------------------|
G |7---9--------7----9------------9---|------------------9----------------|
D |-----------------------------------|-----------------------------------|
A |-----------------------------------|-----------------------------------|
E |-----------------------------------|-----------------------------------|

E |-------- -------- -------- --------|-------- -------- -------- --------|
B |3-----------------1----------------|0----------------------------------|
G |2-----------------2----------------|0----------------------------------|
D |0-----------------0----------------|2----------------------------------|
A |-----------------------------------|-----------------------------------|
E |-----------------------------------|-----------------------------------|

E |5------- -------- -------- --------|-------- ----8--- 7-8-5-7- --5-----|
B |-----------------------------------|---------------------------8---7-8-|
G |-----------------------------------|-----------------------------------|
D |-----------------------------------|-----------------------------------|
A |-----------------------------------|-----------------------------------|
E |-----------------------------------|-----------------------------------|

E |-------- -------- -------- ----7---|-------- -------- -------- --------|
B |---------7---8--------7----10------|8----------------------------------|
G |7---9-------------9----------------|-----------------------------------|
D |-----------------------------------|-----------------------------------|
A |-----------------------------------|-----------------------------------|
E |-----------------------------------|-----------------------------------|

E |-------- -------- -------- --------|-------- -------- -------- --------|
B |3----------------------------------|3----------------------------------|
G |2----------------------------------|4----------------------------------|
D |0----------------------------------|0----------------------------------|
A |-----------------------------------|-----------------------------------|
E |-----------------------------------|-----------------------------------|

E |5------- -------- -------- --------|-------- ----8--- 7-8-5-7- --5-----|
B |-----------------------------------|---------------------------8---7-8-|
G |-----------------------------------|-----------------------------------|
D |-----------------------------------|-----------------------------------|
A |-----------------------------------|-----------------------------------|
E |-----------------------------------|-----------------------------------|

E |-------- -------- -------- --------|----5--- 7------- -------- --------|
B |---------7------------7----8-------|7------------5---------------------|
G |7---9--------7----9------------9---|-----------------------------------|
D |-----------------------------------|-----------------------------------|
A |-----------------------------------|-----------------------------------|
E |-----------------------------------|-----------------------------------|

E |-------- -------- -------- --------|-------- -------- -------- --------|
B |3-----------------1----------------|0----------------------------------|
G |2-----------------2----------------|0----------------------------------|
D |0-----------------0----------------|2----------------------------------|
A |-----------------------------------|-----------------------------------|
E |-----------------------------------|-----------------------------------|

E |-------- -------- -------- --------|-------- ----8--- 7---5-7- --------|
B |-----------------------------------|---------------------------8-------|
G |-----------------------------------|-----------------------------------|
D |-----------------------------------|-----------------------------------|
A |-----------------------------------|-----------------------------------|
E |-----------------------------------|-----------------------------------|

E |-------- -------- -------- 5---7---|-------- -------- -------- --------|
B |---------7------------7------------|8----------------------------------|
G |7---9--------7----9----------------|-----------------------------------|
D |-----------------------------------|-----------------------------------|
A |-----------------------------------|-----------------------------------|
E |-----------------------------------|-----------------------------------|

E |-------- -------- -------- --------|-------- -------- -------- --------|
B |3----------------------------------|3----------------------------------|
G |2----------------------------------|4----------------------------------|
D |0----------------------------------|0----------------------------------|
A |-----------------------------------|-----------------------------------|
E |-----------------------------------|-----------------------------------|

E |-------- -------- -------- --------|-------- -------- -------- --------|
B |8---7-------------8---7--------8---|7-----------------7----------------|
G |---------9---7-------------9-------|----9----7---9---------------------|
D |-----------------------------------|-----------------------------------|
A |-----------------------------------|-----------------------------------|
E |-----------------------------------|-----------------------------------|

E |-------- -------- -------- --------|-------- -------- -------- --------|
B |3--------------------------3-------|3----------------------------------|
G |0--------------------------2-------|2----------------------------------|
D |0--------------------------0-------|0----------------------------------|
A |-----------------------------------|-----------------------------------|
E |-----------------------------------|-----------------------------------|

E |-------- -------- -------- --------|-------- -------- -------- --------|
B |-----------------------------------|-----------------------------------|
G |-----------------------------------|-------------------------------7--/|
D |-----------------------------------|-----------------------------------|
A |-----------------------------------|-----------------------------------|
E |-----------------------------------|-----------------------------------|

E |-------- -------- -------- --------|-------- 7------- -------- --------|
B |7------------------------------7---|8---10-------10--------------------|
G |----7-------------7--------9-------|-----------------------------------|
D |--------10---9---------------------|-----------------------------------|
A |-----------------------------------|-----------------------------------|
E |-----------------------------------|-----------------------------------|

E |-------- -------- -------- --------|-------- -------- -------- --------|
B |3----------------------------------|1----------------------------------|
G |2----------------------------------|2----------------------------------|
D |0----------------------------------|0----------------------------------|
A |-----------------------------------|-----------------------------------|
E |-----------------------------------|-----------------------------------|

E |-------- -------- -------- --------|-------- -------- -------- --------|
B |-----------------------------------/8-~---------------8------------7P8R|
G |11-~--------------7-~------5-~-----|-----------------------------------|
D |-----------------------------------|-----------------------------------|
A |-----------------------------------|-----------------------------------|
E |-----------------------------------|-----------------------------------|

E |-------- -------- -------- --------|-------- -------- 12--14-- 15--17--|
B |11---------------------------------|---------12--15--------------------|
G |----12---------------------9---11--|12--14-----------------------------|
D |------------------10--12-----------|-----------------------------------|
A |-----------------------------------|-----------------------------------|
E |-----------------------------------|-----------------------------------|

E |-------- -------- -------- --------|-------- -------- -------- --------|
B |3-----------------1----------------|3----------------------------------|
G |2-----------------2----------------|0----------------------------------|
D |0-----------------0----------------|0----------------------------------|
A |-----------------------------------|-----------------------------------|
E |-----------------------------------|-----------------------------------|

E |-------- -------- -------- --------|
B |7----------------------------------|
G |-----------------------------------|
D |-----------------------------------|
A |-----------------------------------|
E |-----------------------------------|

E |15------ -------- -------- --------|
B |-----------------------------------|
G |-----------------------------------|
D |-----------------------------------|
A |-----------------------------------|
E |-----------------------------------|

E |-------- -------- -------- --------|
B |3----------------------------------|
G |2----------------------------------|
D |0----------------------------------|
A |-----------------------------------|
E |-----------------------------------|

E |10--1010 ------10 -------- --------|10--1010 ------10 -------- --------|
B |---------13--13---12--1213-10--1012|---------13--13---12--1213-10------|
G |-----------------------------------|-----------------------------------|
D |-----------------------------------|-----------------------------------|
A |-----------------------------------|-----------------------------------|
E |-----------------------------------|-----------------------------------|

E |-------- -----7/8 7-1078-- 5-7-3-5-|3-532-3- 5-753-5- 7-875-7- 10-\-5--|
B|7/10\810/12\10---------------------|-----------------------------------|
G |-----------------------------------|-----------------------------------|
D |-----------------------------------|-----------------------------------|
A |-----------------------------------|-----------------------------------|
E |-----------------------------------|-----------------------------------|

E |--10-10- ----10-- ----10-- ----10--|----10-- ----1010 ----1010 ----10--|
B |-----------------------------------|-----------------------------------|
G |-----------------------------------|-----------------------------------|
D |-----------------------------------|-----------------------------------|
A |-----------------------------------|-----------------------------------|
E |-----------------------------------|-----------------------------------|

E |----5-5- 3---3--- 2---2-320 ---0---|----3--- ----2-3- 0---0H2- --------|
B |-----------------------------------|---------------------------3-3-3---|
G |-----------------------------------|-----------------------------------|
D |-----------------------------------|-----------------------------------|
A |-----------------------------------|-----------------------------------|
E |-----------------------------------|-----------------------------------|

e|10~-10~- 8~--8~-- 7~--7~-- 5~--5~--|3~--3~-- 2~--2~-- 0-2-0-2- ----2-3-|
B |-----------------------------------|---------------------------3-------|
G |-----------------------------------|-----------------------------------|
D |-----------------------------------|-----------------------------------|
A |-----------------------------------|-----------------------------------|
E |-----------------------------------|-----------------------------------|

E |10--1010 8---8-~- 7---7-~- 5---5-~-|3---3-~- 2---2-~- 0---0--- ----2-3-|
B |-----------------------------------|---------------------------3-------|
G |-----------------------------------|-----------------------------------|
D |-----------------------------------|-----------------------------------|
A |-----------------------------------|-----------------------------------|
E |-----------------------------------|-----------------------------------|

E |5------- -------- -------- ----2-3-|5------- -------- -------- ----2-3-|
B |-----------------------------------|-----------------------------------|
G |-----------------------------------|-----------------------------------|
D |-----------------------------------|-----------------------------------|
A |-----------------------------------|-----------------------------------|
E |-----------------------------------|-----------------------------------|

E |5------- -------- -------- --------|-------- -------- -------- --------|
B |-----------------------------------|-----------------------------------|
G |-----------------------------------|-----------------------------------|
D |-----------------------------------|-----------------------------------|
A |-----------------------------------|-----------------------------------|
E |-----------------------------------|-----------------------------------|

E |-------- -------- -------- --------|-------- -------- -------- --------|
B |3----------------------------------|-----------------------------------|
G |2----------------------------------|-----------------------------------|
D |0----------------------------------|-----------------------------------|
A |-----------------------------------|-----------------------------------|
E |-----------------------------------|-----------------------------------|

E |5------- -------- -------- --------|-------- -------- -------- --------|
B |-----------------------------------|-----------------------------------|
G |-----------------------------------|-----------------------------------|
D |-----------------------------------|-----------------------------------|
A |-----------------------------------|-----------------------------------|
E |-----------------------------------|-----------------------------------|

E |-------- -------- -------- --------|-------- -------- -------- --------|
B |-----------------------------------|-----------------------------------|
G |-----------------------------------|-----------------------------------|
D |-----------------------------------|-----------------------------------|
A |-----------------------------------|-----------------------------------|
E |-----------------------------------|-----------------------------------|

Clipes