busca

I've Just Seen A Face

The Beatles

Tom: A (forma dos acordes no tom de G) Capotraste na 2ª casa
[Intro] Em  C  D

Riff Intro: (sem capo) 

E|--------2---2---2---5---5---5----9----9----9----14----14----14----|
B|------------------------------------------------------------------|
G|------2---2---2---6---6---6---11---11---11---14----14----14-------|
D|--------------------------------------------------------------4-2-|
A|------------------------------------------------------------------|
E|-5-4--------------------------------------------------------------|

E|-----10----10----10----12----12----12----14----14----14----14----14----14----|
B|-----------------------------------------------------------------------------|
G|--11----11----11----12----12----12----14----14----14----14----14----14-------|
D|-----------------------------------------------------------------------------|
A|-------------------------------------------------------------------------4-5-|
E|-----------------------------------------------------------------------------|

E|-----12----12----12----10----10----10----9----9----9---------|
B|-------------------------------------------------------------|
G|--13----13----13----11----11----11----9----9-----9-----------|
D|-------------------------------------------------------------|
A|-------------------------------------------------------------|
E|-------------------------------------------------------------|

  G
I've just seen a face I can't forget
                        G/F#     Em
The time or place where we just met
Em
She's just the girl for me and I want
                  Em7       C
All the world to see we've met
C  C/B  D  (riff) G
Uh  uh  uh uh uh  uh

Riff:
        G
E|------3---|
B|------3---|
G|------0---|
D|--0-0-0---|
A|--x-x-2---|
E|--3-2-3---|

G
Had it been another day
                              G/F#    Em
I might have looked the other way and I'd have never been aware
                            Em7   C
But as it is I'll dream of her tonight
C  C/B  D  (riff)  G
Da da  da  da da  da

 D                C                     G      C          G
Falling yes I am falling and she keeps calling  me back again

G
I have never known the likes of this
                    G/F#
I've been alone and I have
Em
Missed things and kept out of sight
                             Em7        C
For other girls were never quite like this
C  C/B  D  (riff)  G
Da da  da  da da  da

 D                C                     G     C           G
Falling yes I am falling and she keeps calling  me back again

Solo: G  G/F#  Em  Em7  C  C  C/B  D (riff) G

(sem capo)
E|---------------------------------------------------------------------------|
B|---------------------------------------------------------------------------|
G|---------------------------------------------------------------------------|
D|------------------------------------0--0-----------------------------------|
A|0---0---0---2--2--0--0--4--4--0--0--------4--4--2--0---0---0--2--2--0--0---|
E|---------------------------------------------------------------------------|

E|-----------------------------------------------------0---------------------|
B|-----------------------------------------------------2---------------------|
G|-----------------------------------------------------2---------------------|
D|------------0--0-------------------------------------2---------------------|
A|4--4--0--0--------4--4--2--0---2---0-------------0---0---------------------|
E|---------------------------------------4---2--4----------------------------|

 D                C                     G      C          G
Falling yes I am falling and she keeps calling  me back again

G
I've just seen a face I can't forget
                        G/F#     Em
The time or place where we just met
Em
She's just the girl for me and I want
                  Em7       C
all the world to see we've met
C  C/B  D  (riff)  G
Uh uh  uh  na na  na

 D                C                     G      C          G
Falling yes I am falling and she keeps calling  me back again
 D                C                     G      C          G
Falling yes I am falling and she keeps calling  me back again
 D                C                     G      C          C C/B D (riff) G
Falling yes I am falling and she keeps calling  me back again

Clipes