busca

Kansas City / Hey Hey Hey Hey

The Beatles

Tom: G
Intro:

E|--------|-------3-------|--------|----x----|--------|----3----|
B|--------|-------3-------|--------|----1----|--------|----3----|
G|-----0--|---------------|-----0--|----3----|-----0--|---------|
D|-0-2----|---------------|-0-2----|----2----|-0-2----|---------|
A|--------|-------2-------|--------|----3----|--------|----2----|
E|--------|-------3-------|--------|----x----|--------|----3----|

Virada:

E|-------|
B|-------|
G|-5-6-7-|
D|-5-6-7-|
A|-3-4-5-|
E|-------|

        G                 C                       D
E|--------------|---------------------|--------------------|
B|--------------|---------------------|--------------------|
G|--------------|---------------------|--------------------|
D|--------------|---------------------|--------------------|
A|--5-7-8-7-5---|----10-12-13-12-10---|---12-14-15-14-12---|
E|--3-3-3-3-3---|----8--8--8--8--8----|---10-10-10-10-10---|

G
Ah, Kansas City
coming to get my
baby back home
yeah, yeah
    C
I'm gonna Kansas city
coming to get my
G
baby back home
yeah, yeah
             D
Well, it's a long, long, time
      C               G
since my baby's been gone

G
Ah, Kansas City
coming to get my baby one time
yeah, yeah
     C
I'm gonna Kansas City
coming to get my baby on time
G
 yeah, yeah
             D
it's just a one,
two, three, four
C
five, six, seven,
        G
eight, nine, wah

Solo: G C D C G

E|-----3-------------------------------------------------------------------10-8--10-10-----------
B|-3-3---3--------------------------------3-3------------------------8-8-11-------------11-8-8-8-
G|---------5--5p3---3---------3-5/7-5-3--7-7----5-3---3----6b7-5-3-0--------------------------7--
D|----------------5---5-3-5-------------------------5---5----------------------------------------
A|-----------------------------------------------------------------------------------------------
E|-----------------------------------------------------------------------------------------------

E|------------------------------|
B|----8---8---------------------|
G|5-3---7----------3p2p0--------|
D|--------------------------3-0-|
A|------------------------------|
E|------------------------------|
                G
Hey, hey, hey, hey
                       C
hey, baby, you're no clown
               G
I say you're no clown
Now, now, now, now,
D
Tell me baby
C                     G
what's been wrong with you

                G
Hey, hey, hey, hey
                       C
Hey, baby, you're no clown
               G
I say you're no clown
Now, now, now, now,
D
Tell me baby
C                     G
What's been wrong with you

               G
Well, I'll say bye
bye, bye, baby bye, bye
        C
Oh, so long
                    G
Bye, bye, baby I'm gone
Yeah, I said
D               C       G
bye, bye, baby, bye, bye
bye, bye, bye, bye

Clipes