Komm, Gib Mir Deine Hand

The Beatles

Am
123
X02210
B7
1234
X21202
C
123
X32010
D
123
XX0232
D5
134
X577XX
D6
134
X5420X
Dm
123
XX0231
E5
12
022XXX
Em
12
022000
G
123
320003
G5
134
355XXX
G6
1234
3X243X
Tom: G
(I Want To Hold Your Hand - versão em Alemão)

Intro:

#1t1##1t2#E|------------|-------------------|----------------------|-------------------|
B|------------|---3---------------|--3-------------------|----------5b-------|
G|------0-----|---2---2------0----|--2----2--------0-----|-------------------|
D|---2-----0--|---0---0---2-----0-|--0----0----2-------0-|-------------------|
A|------------|-------------------|----------------------|-------------------|
E|------------|-------------------|----------------------|-------------------|#/1t2##/1t1#

G5 G6 G5      D5   D6 D5    Riff 1
O komm doch, komm zu mir,
E5                     B7
du nimmst mir den Verstand.
G5 G6 G5      D5   D6 D5    Riff 1
O komm doch, komm zu mir 
E5                  B7
komm gib mir deine Hand,

C             D     G      Em
komm gib mir deine Hand,
C             D     G
komm gib mir deine Hand.

G5 G6 G5   D5   D6 D5    Riff 1
O du bist so schön,
E5                B7
schön wie ein Diamant.
G5 G6 G5      D5  D6 D5    Riff 1
Ich will mit dir gehen,
E5                  B7
komm gib mir deine Hand,

C             D     G      Em
komm gib mir deine Hand,
C             D     G
komm gib mir deine Hand.

Dm        G               C             Am
In deinen Armen bin ich glücklich und froh, 
Dm             G            C
dass war noch nie bei einer andern
        D  C       D  C       D   D5 D6 D5 D6 D5 <-- usar Power Chords
einmal so, einmal so, einmal so.

G5 G6 G5      D5   D6 D5    Riff 1
O komm doch, komm zu mir,
E5                     B7
du nimmst mir den Verstand.
G5 G6 G5      D5   D6 D5    Riff 1
O komm doch, komm zu mir 
E5                  B7
komm gib mir deine Hand,

C             D     G      Em
komm gib mir deine Hand,
C             D     G
komm gib mir deine Hand.

Dm        G               C             Am
In deinen Armen bin ich glücklich und froh, 
Dm             G            C
dass war noch nie bei einer andern
        D  C       D  C       D   D5 D6 D5 D6 D5 <-- usar Power Chords
einmal so, einmal so, einmal so.

G5 G6 G5   D5   D6 D5    Riff 1
O du bist so schön,
E5                B7
schön wie ein Diamant.
G5 G6 G5      D5  D6 D5    Riff 1
Ich will mit dir gehen,
E5                  B7
komm gib mir deine Hand,

C             D     G      Em
komm gib mir deine Hand,
C             D     B7
komm gib mir deine Hand,
C             D     C     Riff 2 
komm gib mir deine Hand.

#2t1# Riff 1                          Riff 2
#2t2#E|-----------------|-------------------------3--|
B|---------5b------|-------------------------0--|
G|-----------------|-------------------------0--|
D|-----------------|---2--0-------2--0-------0--|
A|---5-4-5----6-7--|-3----------3------------2--|
E|-----------------|-------------------------3--|#/2t2##/2t1#
Composição: John Lennon / Paul McCartneyColaboração e revisão: Guilherme Soares