busca

Lend Me Your Comb

The Beatles

Tom: D
(intro)
E |---------------------------------------------------------------------------|
B |---------------------------------------------------------------------------|
G |--9--7--7-------------9--7-------------------------------------------------|
D |--9--7--7--5--7--9----9--7--9--5--7--9-------------------------------------|
A |-----------5--7--9-------------5--7--9-------------------------------------|
E |---------------------------------------------------------------------------|

E |---------------------------------------------------------------------------|
B |---------------------------------------------------------------------------|
G |--9--9--9---6--6--6---9--9--9---6--6--6--6--8--8--8--8--8--9-7-------------|
D |--9--9--9---7--7--7---9--9--9---7--7--7--7--9--9--9--9--9--9-7--5-7-9------|
A |--7--7--7---7--7--7---7--7--7---7--7--7--7--9--9--9--9--9-------5-7-9------|
E |------------5--5--5-------------5--5--5--5--7--7--7--7--7------------------|

E |---------------------------------------------------------------------------|
B |---------------------------------------------------------------------------|
G |--9--9--9---6--6--6---9--9--9---6--6--6--6--8--8--8--8--8--9-7-------------|
D |--9--9--9---7--7--7---9--9--9---7--7--7--7--9--9--9--9--9--9-7-------------|
A |--7--7--7---7--7--7---7--7--7---7--7--7--7--9--9--9--9--9------------------|
E |------------5--5--5-------------5--5--5--5--7--7--7--7--7-------0-2-3-4----|

E |---------------------------------------------------------------------------|
B |---------------------------------------------------------------------------|
G |------------------------------------------------------4-------4------------|
D |--2-2-2-2-----------4-4-4-4----------2-2-2-2----------4-------4------------|
A |--0-0-0-0--2-2-2-2--2-2-2-2----------0-0-0-0--2-2-2-2-2-------2------------|
E |-----------0-0-0-0-----------0-2-3-4----------0-0-0-0----------------------|

E |---------------------------------------------------------------------------|
B |---------------------------------------------------------------------------|
G |--9--9--9---6--6--6---9--9--9---6--6--6--6--8--8--8--8--8--9-7-------------|
D |--9--9--9---7--7--7---9--9--9---7--7--7--7--9--9--9--9--9--9-7--5-7-9------|
A |--7--7--7---7--7--7---7--7--7---7--7--7--7--9--9--9--9--9-------5-7-9------|
E |------------5--5--5-------------5--5--5--5--7--7--7--7--7------------------|

(solo)
E |---15b17-15b17-12----------------------------------------------------------|
B |---------------------12----12------12----12----12-14----12-----------------|
G |------------------14-12----12------12----12----12-14b15-12-----------------|
D |------------------------14------14----14----14-----------------------------|
A |---------------------------------------------------------------------------|
E |---------------------------------------------------------------------------|

E |----------------12-15b17-12---------------------15b17-12-------------------|
B |----x-----12-15----------------12----12-----12--------------12----12-------|
G |---x---14-------------------14-12----12-----12-----------14-12----12-14b15-|
D |-14-------------------------------14---------------------------14----------|
A |-----------------------------------------14--------------------------------|
E |---------------------------------------------------------------------------|

E |-----------------------------------------------------12-15b17-12-----------|
B |------12----12---------------------------------12-14-------------12--------|
G |------12----12--------12-14b15-14-12--------14----------------------15p14--|
D |---14----14----14--14----------------14-14---------------------------------|
A |---------------------------------------------------------------------------|
E |---------------------------------------------------------------------------|

E |---------------------------------------------------------------------------|
B |-12---12----14----14--12---------------------------------------------------|
G |-12---12----14b15-14--12-----------------------0---------------------------|
D |---14----14--------------14-12-14------------2-----------------------------|
A |---------------------------------------0-2-4-------------------------------|
E |-----------------------------------0-2------------0-2-3-4------------------|

E |---------------------------------------------------------------------------|
B |---------------------------------------------------------------------------|
G |------------------------------------------------------4-------4------------|
D |--2-2-2-2-----------4-4-4-4----------2-2-2-2----------4-------4------------|
A |--0-0-0-0--2-2-2-2--2-2-2-2----------0-0-0-0--2-2-2-2-2-------2------------|
E |-----------0-0-0-0-----------0-2-3-4----------0-0-0-0----------------------|

E |---------------------------------------------------------------------------|
B |---------------------------------------------------------------------------|
G |--9--9--9---6--6--6---9--9--9---6--6--6--6--8--8--8--8--8--9-7-------------|
D |--9--9--9---7--7--7---9--9--9---7--7--7--7--9--9--9--9--9--9-7--5-7-9------|
A |--7--7--7---7--7--7---7--7--7---7--7--7--7--9--9--9--9--9-------5-7-9------|
E |------------5--5--5-------------5--5--5--5--7--7--7--7--7------------------|

E |---------------------------------------------------------------------------|
B |---------------------------------------------------------------------------|
G |--9--7--7-------------9--7-------------------------------------------------|
D |--9--7--7--5--7--9----9--7--9--5--7--9-------------------------------------|
A |-----------5--7--9-------------5--7--9-------------------------------------|
E |---------------------------------------------------------------------------|

Clipes

Cifra Club Pro

Aproveite o Cifra Club com benefícios exclusivos e sem anúncios
7 dias grátis
Cifra Club Pro
Aproveite o Cifra Club com benefícios exclusivos e sem anúncios
7 dias grátis