busca

Love You To

The Beatles

Tom: Gm
E|-8------------8-------------------------|
B|--8------------8----------------------8-|
G|---9------------9-------------------9---|
D|----10-----------10--------10----10-----|
A|------10-----------10---------10--------|
E|--------8------------8------------------|

E|-------------------------------------------------------|
B|-----------------------------------------------------8-|
G|----11b------10------7b-8p7------------------------9---|
D|---------------------------------8b/10----10----10-----|
A|---------------------------------------------10--------|
E|-8--------8-------8-----------8------------------------|

E|---------------------------------------------------------------|
B|-------------------------------------------------------------8-|
G|----------7b------7-8/10--10p8--7h8p7----------------------9---|
D|-10p8--10------10---------------------10--8/10----10----10-----|
A|-----------------------------------------------------10--------|
E|---------------------------------------------------------------|

E|----------------------------------------------|
B|----------------------------------------------|
G|----------7-8--10---------8---------7---------|
D|-10p8--10----------10--------10--------10-----|
A|----------------------------------------------|
E|----------------------------------------------|

E|---------------------------------------------------------------------------|
B|----8h10-11---10h11p10-----8----8---8-8---8-8---8-8---8-8---8-8---8-8------|
G|-10---------------------10-------------------------------------------------|
D|------------------------------------------------------------------------10-|
A|---------------------------------------------------------------------------|
E|---------------------------------------------------------------------------|

Verso:
E|------------------------------------------------------------------------|
B|------------------------------------------------------------------------|
G|---------7b----7h8p7------------------7b-7--8-8bb---7-------------------|
D|----------------------8-10--------10------------------10------10-----10-|
A|------------------------------------------------------------------------|
E|------------------------------------------------------------------------|

Refrão:
E|---------------------------------------------------------------------|
B|----8h10-11---10h11p10-----8-----8---8---8----11--11--10h11p10-----8-|
G|-10---------------------10--------------------------------------10---|
D|---------------------------------------------------------------------|
A|---------------------------------------------------------------------|
E|---------------------------------------------------------------------|

E|--------------------------------------------------------|
B|----8h10-11---10h11p10-----8-----11--11--10h11p10-----8-|
G|-10---------------------10-------------------------10---|
D|--------------------------------------------------------|
A|--------------------------------------------------------|
E|--------------------------------------------------------|

E|---------------------------------------------------------------------------|
B|----8h10-11---10h11p10-----8-8---8-8----------------8----------------------|
G|-10---------------------10------------10h12p10---8------7b---7h8p7---------|
D|--------------------------------------------------------------------8-10bb-|
A|---------------------------------------------------------------------------|
E|---------------------------------------------------------------------------|

Verso:
E|----------------------------------------------------------------------|
B|----------------------------------------------------------------------|
G|-----------7b-7--8-8bb---7-------------7b-7h8p7-----------------------|
D|-------10-------------------10-----10------------8--10bb----10-----10-|
A|----------------------------------------------------------------------|
E|----------------------------------------------------------------------|

(Refrão)

Solo:
E|----------------------------------------------------------------------------|
B|------------------------8----8-10-8-10-11/13--13--13--13--11h13p11-10-11-13-|
G|-7------7-8-7-8-10-8-10---10------------------------------------------------|
D|-----10---------------------------------------------------------------------|
A|----------------------------------------------------------------------------|
E|----------------------------------------------------------------------------|

E|-10b--10------------------------------------------------------------------|
B|---------13-11---13bb--13-11-10---11bb--11-10-8-----8bb-----8h10p8--------|
G|-------------------------------------------------10----------------10-8-7-|
D|--------------------------------------------------------------------------|
A|--------------------------------------------------------------------------|
E|--------------------------------------------------------------------------|

E|---------------------------------------------------|
B|------8-----------------8----8-10b---10h11p10----8-|
G|-8-10---10b----8-7-8-10---10------------------10---|
D|---------------------------------------------------|
A|---------------------------------------------------|
E|---------------------------------------------------|

(Refrão)

Verso:
E|---------------------------------------------------------------------------|
B|---------------------------------------------------------------------------|
G|---------7b--7h8p7---7-8bb--8-7-----------7b--7h8p7------------------------|
D|------10------------------------10-----10------------8--10bb----10-----10--|
A|---------------------------------------------------------------------------|
E|---------------------------------------------------------------------------|

(Refrão)

Outro:
E|----------------------------------------------------------------|
B|----------------------------------------------------------------|
G|----------------------------------------------------------------|
D|-10-10-10-10-10-10-10-10-10-10-10-10-10-10-10-10-10-10-10-10-10-|
A|----------------------------------------------------------------|
E|----------------------------------------------------------------|

E|--------------------------------------------------------------------------|
B|---------------------------------8------8-10---8-10-11--11---11p10p8----8-|
G|------7------7-8---7-8-10---8-10-----10------------------------------10---|
D|-8-10-----10--------------------------------------------------------------|
A|--------------------------------------------------------------------------|
E|--------------------------------------------------------------------------|

E|-----------------------------------------------------------------------|
B|-----------------------------------------------------------------------|
G|-10h12p10-8---7--8bb--8-7------------------------------7---------------|
D|--------------------------10----8--10---8h10-10---8-10-----10--8--7--5-|
A|-----------------------------------------------------------------------|
E|-----------------------------------------------------------------------|

Clipes