busca

Martha My Dear

The Beatles

Tom: C
  Martha my dear though I spend my days in conversation
    Please, Remember me Martha my love
    Don't forget me Martha my dear

    Hold your head up you silly girl look what you've done
    When you find yourself in the thick of it
    Help yourself to a bit of what is all around you
    Silly Girl.

    Take a good look around you
    Take a good look you're bound to see
    That you and me were meant to be for each other
    Silly girl.

    Hold your hand out you silly girl see what you've done
    When you find yourself in the thick of it
    Help yourself to a bit of what is all around you
    Silly girl.

    Martha my dear you have always been my inspiration
    Please, be good to me Martha my love
    Don't forget me Martha my dear.




    5/4 time

     Eb        Eb6 ....              D
  e|----6-- --8---- ------- 6-8---- --5----|
  B|8---------------8-------------8--------|
  G|----8-------8-------8-------8-------7--|
  D|---------------------------------------|
  A|6-------6-------6-------6-------5------|
  E|---------------------------------------|



    4/4
     Gm              C               F
  e|------- ------- 8------ 6------|------- ------- -----/- -------|
  B|11--11-11--10------------------10------------------1011-10--8--|
  G|-------------------------------|----------------10-------------|
  D|-------------------------------|--------7---10-----------------|
  A|10------8-------7-------5---7--|8---10-------------------------|
  E|--------------------8----------|-------------------------------|



                                              Bb
     Eb              Abmaj7          Bb7     Bb6     abmaj7
  e|------- ------- 3---3-- 3---3--|------- ------- ------- --3----|
  B|6-----6---6-----4---4---4---4--|9---9---8P6-----------4-----4--|
  G|----------------5---5---5---5--|7---7---7-----7---5------------|
  D|----8-------8-------6-------6--|----8-------8-------6-------6--|
  A|-------------------------------|-------------------------------|
  E|6-------6-------4-------4------|6-------6-------4-------4------|


     ....                            Bb                      Bb7
  e|------- ------- ------- --3----|6---6-- 4P3---- ------3H4------|
  B|9---9---8P6-----------4-----4--|3---3-------6---3-6------------|
  G|7---7---7-----7---5------------|3---3--------------------------|
  D|----8-------8-------6-------6--|-------------------------------|
  A|-------------------------------|-------------------------------|
  E|6-------6-------4-------4------|-------------------------------|




    00:19

  e|----6-- --8---- ------- 6-8---- --5----|
  B|8---------------8-------------8--------|
  G|----8-------8-------8-------8-------7--|
  D|---------------------------------------|
  A|6-------6-------6-------6-------5------|
  E|---------------------------------------|
    Martha    my    dear    though    my
                              I   spend



  e|------- ------- 8------ 6------|------- ------- -----/- -------|
  B|11--11-11--10------------------10------------------1011-10--8--|
  G|-------------------------------|----------------10-------------|
  D|-------------------------------|--------7---10-----------------|
  A|10------8-------7-------5---7--|8---10-------------------------|
  E|--------------------8----------|-------------------------------|
    days    conversation            Please              remember
        in



  e|------- ------- 3---3-- 3---3--|------- ------- ------- --3----|
  B|6-----6---6-----4---4---4---4--|9---9---8P6-----------4-----4--|
  G|----------------5---5---5---5--|7---7---7-----7---5------------|
  D|----8-------8-------6-------6--|----8-------8-------6-------6--|
  A|-------------------------------|-------------------------------|
  E|6-------6-------4-------4------|6-------6-------4-------4------|
    me              Martha      love                don't       me
                          my                            forget



  e|------- ------- ------- --3----|6---6-- 4P3---- ------3 4------|
  B|9---9---8P6-----------4-----4--|3---3-------6---3-6----H-------|
  G|7---7---7-----7---5------------|3---3--------------------------|
  D|----8-------8-------6-------6--|-------------------------------|
  A|-------------------------------|-------------------------------|
  E|6-------6-------4-------4------|-------------------------------|
                    Martha      dear
                          my


    00:38
     Dm7                             Gmadd9
  e|5---5-- 5---5-- 5---5-- 5---5--|5---5-- 5---5-- 5---5-- 5---5--|
  B|6---6---6---6---6---6---6---6--|3---3---3---3---3---3---3---3--|
  G|5---5---5---5---5---5---5---5--|3---3---3---3---3---3---3---3--|
  D|-------------------------------|-------------------------------|
  A|5---------------5--------------|--------5---------------5------|
  E|--------5---------------5------|3---------------3--------------|
    Hold    your        up      you silly       girl
                head


     F
  e|5---5-- 5---5-- 5---5-- 5---5--|5---5-- 5---5-- 5---5-- 5---5--|
  B|6---6---6---6---6---6---6---6--|6---6---6---6---6---6---6---6--|
  G|5---5---5---5---5---5---5---5--|5---5---5---5---5---5---5---5--|
  D|3---------------3--------------|3-----------7------------------|
  A|--------3---------------3------|-------------------------------|
  E|-------------------------------|-------------------------------|
    look    you've                              When    you     find
        what    done


     Csus4           C ....
  e|------- ------- ------- -------|------- ------- ------- -------|
  B|6---6---6---6---5---5---5---5--|6---6---6---6---5---5---5---5--|
  G|5---5---5---5---5---5---5---5--|5---5---5---5---5---5---6---6--|
  D|5---5---5---5---5---5---5---5--|5---5---5---5---5---5---7---7--|
  A|3---------------3--------------|3---------------3--------------|
  E|--------3---------------3------|--------3---------------5------|
        yourself  the of            Help        to  bit what    around
                in  thick               yourself  a   of  is
                        it                                  all

                                   (.
     Dm7                             Gmadd9
  e|5---5-- 5---5-- 5---5-- 5---5--|5------ ------- ------- -------|
  B|6---6---6---6---6---6---6---6--|3------------------------------|
  G|5---5---5---5---5---5---5---5--|3------------------------------|
  D|0------------------------------|-------------------------------|
  A|-------------------------------|-------------------------------|
  E|-------------------------------|3------------------------------|

  e|------- ------- ------- -------|------- ------- ------- -------|
  B|-------------------------------|------6-----------6------------|
  G|-------------------------------|----7-----7-----7-----7--------|
  D|-------------------------------|8-----------8-----------5---7--|
  A|-------------------------------|-------------------------------|
  E|-------------------------------|-------------------------------|
        you                 silly                           Take  good
                                  girl                          a


    DOUBLE TIME
    01:00
     Dm7                             G7
  e|5------ 5------ 5------ 5------|3------ 3------ 3------ 3------|
  B|6-------6-------6-------6------|6-------6-------6-------6------|
  G|5-------5-------5-------5------|4-------4-------4-------4------|
  D|7-------7-------7-------7------|5-------5-------5-------5------|
  A|-------------------------------|-------------------------------|
  E|-------------------------------|-------------------------------|

  e|5------ ------- 5------ -------|3------ 3------ 3------ 3------|
  B|6---------------6--------------|3-------3-------3-------3------|
  G|7---------------7--------------|4-------4-------4-------4------|
  D|7---------------7--------------|5-------5-------5-------5------|
  A|5---------------5--------------|5-------5-------5-------5------|
  E|-------------------------------|3-------3-------3-------3------|

  e|5------ ------- ------- -------|5------ ------- ------- -------|
  B|6------------------------------|6------------------------------|
  G|5------------------------------|4------------------------------|
  D|5------------------------------|5------------------------------|
  A|-------------------------------|-------------------------------|
  E|-------------------------------|-------------------------------|
                    look                        you
                        around




  e|3------ 3------ 3------ 3------|
  B|6-------6-------6-------6------|
  G|4-------4-------4-------4------|
  D|5-------5-------5-------5------|
  A|-------------------------------|
  E|-------------------------------|

  e|3------ ------- 3------ -------|
  B|3---------------3--------------|
  G|4---------------4--------------|
  D|5---------------5--------------|
  A|5---------------5--------------|
  E|3---------------3--------------|

  e|------- ------- ------- -------|
  B|-------------------------------|
  G|-------------------------------|
  D|-------------------------------|
  A|-------------------------------|
  E|-------------------------------|
                    Take        good
                        a



     Dm7                             G7
  e|5------ 5------ 5------ 5------|3------ 3------ 3------ 3------|
  B|6-------6-------6-------6------|6-------6-------6-------6------|
  G|5-------5-------5-------5------|4-------4-------4-------4------|
  D|7-------7-------7-------7------|5-------5-------5-------5------|
  A|-------------------------------|-------------------------------|
  E|-------------------------------|-------------------------------|

  e|5------ ------- 5------ -------|3------ 3------ 3------ -------|
  B|6---------------6--------------|3-------3-------3--------------|
  G|7---------------7--------------|4-------4-------4--------------|
  D|7---------------7--------------|5-------5-------5--------------|
  A|5---------------5--------------|5-------5-------5--------------|
  E|-------------------------------|3-------3-------3--------------|

  e|5------ ------- ------- -------|5------ ------- ------- -------|
  B|6------------------------------|6------------------------------|
  G|5------------------------------|4------------------------------|
  D|5------------------------------|5------------------------------|
  A|-------------------------------|-------------------------------|
  E|-------------------------------|-------------------------------|
                    look            bound       to          see
                        you're




  e|3------ 3------ 3------ 3------|
  B|6-------6-------6-------6------|
  G|4-------4-------4-------4------|
  D|5-------5-------5-------5------|
  A|-------------------------------|
  E|-------------------------------|

  e|3------ ------- 3------ -------|
  B|3---------------3--------------|
  G|4---------------4--------------|
  D|5---------------5--------------|
  A|5---------------5--------------|
  E|3---------------3--------------|

  e|5------ ------- ------- -------|
  B|6------------------------------|
  G|4------------------------------|
  D|5------------------------------|
  A|-------------------------------|
  E|-------------------------------|
                            that



     C11
  e|1------ 1------ 1------ 1------|1------ 1------ 1------ 1------|
  B|3-------3-------3-------3------|3-------3-------3-------3------|
  G|3-------3-------3-------3------|3-------3-------3-------3------|
  D|-------------------------------|-------------------------------|
  A|3-------3-------3-------3------|3-------3-------3-------3------|
  E|-------------------------------|-------------------------------|

  e|------- ------- ------- -------|------- ------- ------- -------|
  B|3---------------3--------------|3------------------------------|
  G|3---------------3--------------|3---------------3--------------|
  D|2---------------2--------------|2---------------2--------------|
  A|3---------------3--------------|3---------------3--------------|
  E|-------------------------------|-------------------------------|

  e|5------ ------- ------- -------|------- ------- ------- -------|
  B|6------------------------------|-------------------------------|
  G|7------------------------------|-------------------------------|
  D|8------------------------------|-------------------------------|
  A|-------------------------------|-------------------------------|
  E|-------------------------------|-------------------------------|
    you and         me                                  were



     Bb
  e|1------ 1------ 1------ 1------|1------ 1------ 1------ 1------|
  B|3-------3-------3-------3------|3-------3-------3-------3------|
  G|3-------3-------3-------3------|3-------3-------3-------3------|
  D|-------------------------------|-------------------------------|
  A|1-------1-------1-------1------|1-------1-------1-------1------|
  E|-------------------------------|-------------------------------|

  e|5------ ------5 ------5 5------|------5 ------5 5------ -------|
  B|3-------------3-------3-3------|------3-x-----3-3--------------|
  G|3-------------3-------3-3------|------3-x-----3-3--------------|
  D|3-------------3-------3-3------|------3-x-----3-3--------------|
  A|-------------------------------|-------------------------------|
  E|-------------------------------|-------------------------------|
    meant       to      be                          for each    other


[ Tab from: http://www.guitaretab.com/b/beatles/1181.html ]
     Dm7
  e|5------ 5------ 5------ 5------|5------ 5------ 5------ 5------|
  B|6-------6-------6-------6------|6-------6-------6-------6------|
  G|5-------5-------5-------5------|5-------5-------5-------5------|
  D|-------------------------------|-------------------------------|
  A|5------------------------------|5------------------------------|
  E|----------------5--------------|----------------5--------------|

  e|5------ ------- 5------ -------|5------ ------- 5------ -------|
  B|6---------------6--------------|6---------------6--------------|
  G|5---------------5--------------|5---------------5--------------|
  D|7---------------7--------------|7---------------7--------------|
  A|5---------------5--------------|5---------------5--------------|
  E|-------------------------------|-------------------------------|
                                                    silly       girl


    BACK TO ORIGINAL TIME
    4/4                             2/4
   (.
     Gm                              Eb
  e|3------ ------- ------- -------|------- -------|
  B|3------------------------------|---------------|
  G|3------------------------------|---------------|
  D|-------------------------------|---------------|
  A|-------------------------------|---------------|
  E|3------------------------------|---------------|

  e|3------ ------- ------- -------|3---3-- 3------|
  B|3------------------------------|4---4---4------|
  G|3------------------------------|3---3---3------|
  D|5------------------------------|5---5---5------|
  A|5------------------------------|6---6---6------|
  E|3------------------------------|---------------|

  e|------- ------- ------- -------|------- -------|
  B|------6-----------6------------|8---8---8------|
  G|----7-----7-----7-----7-----7--|8---8---8------|
  D|8-----------8-----------8------|8---8---8------|
  A|-------------------------------|---------------|
  E|-------------------------------|---------------|




    01:20   x               x

  e|----6-- --8---- ------- 6-8---- --5----|
  B|8---------------8-------------8--------|
  G|----8-------8-------8-------8-------7--|
  D|---------------------------------------|
  A|6-------6-------6-------6-------5------|
  E|---------------------------------------|

  e|------- 6------ ------- 6------ 5------|
  B|--------8---------------8-------7------|
  G|--------8---------------8-------7------|
  D|--------8---------------8-------7------|
  A|--------6---------------6-------5------|
  E|---------------------------------------|



    x               x               x               x

  e|------- ------- 8------ 6------|------- ------- -----/- -------|
  B|11--11-11--10------------------10------------------1011-10--8--|
  G|-------------------------------|----------------10-------------|
  D|-------------------------------|--------7---10-----------------|
  A|10------8-------7-------5---7--|8---10-------------------------|
  E|--------------------8----------|-------------------------------|

  e|3------ 3------ 3------ 3-\----|1------ ------- ------- -------|
  B|3-------3-------5-------5-\----|1------------------------------|
  G|3-------3-------5-------5-\----|2------------------------------|
  D|5-------3-------5-------5-\----|3------------------------------|
  A|5-------5-------3-------3-\----|3------------------------------|
  E|3-------3----------------------|1------------------------------|



            x               x               x               x

  e|------- ------- 3---3-- 3---3--|------- ------- ------- --3----|
  B|6-----6---6-----4---4---4---4--|9---9---8P6-----------4-----4--|
  G|----------------5---5---5---5--|7---7---7-----7---5------------|
  D|----8-------8-------6-------6--|----8-------8-------6-------6--|
  A|-------------------------------|-------------------------------|
  E|6-------6-------4-------4------|6-------6-------4-------4------|

  e|6------ 6------ 3-----3 3-3-3--|6---6-- 6------ 3---3-3 3-3-3--|
  B|6-------6-------4-----4-4-4-4--|6---6---6-------4---4-4-4-4-4--|
  G|7-------7-------5-----5-5-5-5--|7---7---7-------5---5-5-5-5-5--|
  D|8-------8-------6-----6-6-6-6--|8---8---8-------6---6-6-6-6-6--|
  A|8-------8----------------------|8---8---8----------------------|
  E|6-------6-------4-----4-4-4-4--|6---6---6-------4---4-4-4-4-4--|
                    T
  e|------- ------- ------- -------|------- ------- ------- -------|
  B|-------------------------------|-------------------------------|
  G|7---------------5---5---5---5--|7-------------------5----------|
  D|------------8------------------|-------------------------------|
  A|-------------------------------|-------------------------------|
  E|-------------------------------|-------------------------------|



            x               x

  e|------- ------- ------- --3----|6---6-- 4P3---- ------3H4------|
  B|9---9---8P6-----------4-----4--|3---3-------6---3-6------------|
  G|7---7---7-----7---5------------|3---3--------------------------|
  D|----8-------8-------6-------6--|-------------------------------|
  A|-------------------------------|-------------------------------|
  E|6-------6-------4-------4------|-------------------------------|

  e|6------ 6------ 3-----3 3-3-3--|------- ------- ------- -------|
  B|6-------6-------4-----4-4-4-4--|-------------------------------|
  G|7-------7-------5-----5-5-5-5--|-------------------------------|
  D|8-------8-------6-----6-6-6-6--|----8--------------------------|
  A|8-------8----------------------|----8--------------------------|
  E|6-------6-------4-----4-4-4-4--|----6--------------------------|

  e|------- ------- ------- -------|------- ------- ------- -------|
  B|-------------------------------|-------------------------------|
  G|7-------------------5----------|-------------------------------|
  D|-------------------------------|8---8--------------------------|
  A|-------------------------------|-------------------------------|
  E|-------------------------------|6---6--------------------------|



    01:40

  e|5---5-- 5---5-- 5---5-- 5---5--|5---5-- 5---5-- 5---5-- 5---5--|
  B|6---6---6---6---6---6---6---6--|3---3---3---3---3---3---3---3--|
  G|5---5---5---5---5---5---5---5--|3---3---3---3---3---3---3---3--|
  D|-------------------------------|-------------------------------|
  A|5---------------5--------------|--------5---------------5------|
  E|--------5---------------5------|3---------------3--------------|

  e|5------ 5---5-- 5------ 5------|3---3-- 3-----3 ----3-- ----3--|
  B|6-------6---6---6-------6------|6---6---6-----6-----6-------6--|
  G|7-------7---7---7-------7------|3---3---3-----3-----3-------3--|
  D|7-------7---7---7-------7------|5---5---5-----5-----5-------5--|
  A|5-------5---5---5-------5------|5---5---5-----5-----5-------5--|
  E|-------------------------------|3---3---3-----3-----3-------3--|

  e|13----- ------- ------- -------|------- ------- ------- -------|
  B|-------------------------------|----------------------------6--|
  G|-------------------------------|------------------------7------|
  D|-------------------------------|---------------------8---------|
  A|-------------------------------|-------------------------------|
  E|-------------------------------|-------------------------------|
    Hold    your        up      you silly       girl
                head



  e|5---5-- 5---5-- 5---5-- 5---5--|5---5-- 5---5-- 5---5-- 5---5--|
  B|6---6---6---6---6---6---6---6--|6---6---6---6---6---6---6---6--|
  G|5---5---5---5---5---5---5---5--|5---5---5---5---5---5---5---5--|
  D|3---------------3--------------|3-----------7------------------|
  A|--------3---------------3------|-------------------------------|
  E|-------------------------------|-------------------------------|

  e|1------ 1---1-- 1-----1 1---1--|1------ 1------ 1------ 1------|
  B|1-------3---3---3-----3-3---3--|3-------3-------3-------3------|
  G|2-------2---2---2-----2-2---2--|2-------2-------2-------2------|
  D|3------------------------------|-------------------------------|
  A|3-------3---3---3-----3-3---3--|3-------3-------3-------3------|
  E|1-------1---1---1-----1-1---1--|1-------1-------1-------1------|

  e|5------ ------- ------- -------|------- ------- ------- -------|
  B|----------------6--------------|----------------5---6----------|
  G|-------------------------------|--------5---7-----------5------|
  D|-------------------------------|7---8-----------------------7--|
  A|-------------------------------|-------------------------------|
  E|-------------------------------|-------------------------------|
    see     you've                              When    you     find
        what    done



  e|------- ------- ------- -------|------- ------- ------- -------|
  B|6---6---6---6---5---5---5---5--|6---6---6---6---5---5---5---5--|
  G|5---5---5---5---5---5---5---5--|5---5---5---5---5---5---6---6--|
  D|5---5---5---5---5---5---5---5--|5---5---5---5---5---5---7---7--|
  A|3---------------3--------------|3---------------3--------------|
  E|--------3---------------3------|--------3---------------5------|

  e|3------ 3------ 3------ 3------|3------ 3------ 3------ -------|
  B|6-------6-------5-------5------|6-------6-------5--------------|
  G|3-------3-------5-------5------|3-------3-------5--------------|
  D|5-------5-------5-------5------|5-------5-------5--------------|
  A|5-------5-------3-------3------|5-------5-------3--------------|
  E|3-------3----------------------|3-------3---------------5------|

  e|------- ------- ------- -------|------- ------- ------- -------|
  B|-------------------------------|----------------5-------6---5--|
  G|5------------------------------|7------------------------------|
  D|-------------------------------|-------------------------------|
  A|-------------------------------|-------------------------------|
  E|-------------------------------|-------------------------------|
        yourself  the of            Help        to  bit what    around
                in  thick               yourself  a   of  is
                        it                                  all

                                   (.

  e|5---5-- 5---5-- 5---5-- 5---5--|5------ ------- ------- -------|
  B|6---6---6---6---6---6---6---6--|3------------------------------|
  G|5---5---5---5---5---5---5---5--|3------------------------------|
  D|0------------------------------|-------------------------------|
  A|-------------------------------|-------------------------------|
  E|-------------------------------|3------------------------------|

  e|5------ 5------ 5------ 5------|3------ ------- ------- -------|
  B|6-------6-------6-------6------|3------------------------------|
  G|7-------7-------7-------7------|3------------------------------|
  D|7-------7-------7-------7------|5------------------------------|
  A|5-------5-------5-------5------|5------------------------------|
  E|-------------------------------|3------------------------------|

  e|------- ------- ------- -------|------- ------- ------- -------|
  B|6------------------------------|------6-----------6------------|
  G|-------------------------------|----7-----7-----7-----7--------|
  D|-------------------------------|8-----------8-----------5---7--|
  A|-------------------------------|-------------------------------|
  E|-------------------------------|-------------------------------|

        you                 silly
                                  girl



  e|------- -------|
  B|8---9--10------|
  G|8---8---8------|
  D|8---8---8------|
  A|---------------|
  E|---------------|

  e|6---6-- 6------|
  B|8---6---8------|
  G|8---8---8------|
  D|8---8---8------|
  A|6---6---6------|
  E|---------------|

  e|------- -------|
  B|---------------|
  G|---------------|
  D|8---6---5------|
  A18---8---6------|
  E|---------------|




    02:03

  e|----6-- --8---- ------- 6-8---- --5----|
  B|8---------------8-------------8--------|
  G|----8-------8-------8-------8-------7--|
  D|---------------------------------------|
  A|6-------6-------6-------6-------5------|
  E|---------------------------------------|
    Martha      my  dear    you have
                                  always



  e|------- ------- 8------ 6------|------- ------- -----/- -------|
  B|11--11-11--10------------------10------------------1011-10--8--|
  G|-------------------------------|----------------10-------------|
  D|-------------------------------|--------7---10-----------------|
  A|10------8-------7-------5---7--|8---10-------------------------|
  E|--------------------8----------|-------------------------------|
    been    inspiration             Please              be  good
        my                                                      to



  e|------- ------- 3---3-- 3---3--|------- ------- ------- --3----|
  B|6-----6---6-----4---4---4---4--|9---9---8P6-----------4-----4--|
  G|----------------5---5---5---5--|7---7---7-----7---5------------|
  D|----8-------8-------6-------6--|----8-------8-------6-------6--|
  A|-------------------------------|-------------------------------|
  E|6-------6-------4-------4------|6-------6-------4-------4------|
    me              Martha      love                Don't       me
                          my                            forget



  e|------- ------- ------- --3----|6---6-- 4P3---- ------3H4---4--|
  B|9---9---8P6-----------4-----4--|3---3-------6---3-6---------3--|
  G|7---7---7-----7---5------------|3---3-----------------------3--|
  D|----8-------8-------6-------6--|-------------------------------|
  A|-------------------------------|-------------------------------|
  E|6-------6-------4-------4------|-------------------------------|
                    Martha      dear
                          my

   (.

  e|3------ ------- ------- -------|------- ------- ------- -------|
  B|4------------------------------|-------------------------------|
  G|3------------------------------|-------------------------------|
  D|5------------------------------|-------------------------------|
  A|-------------------------------|-------------------------------|
  E|-------------------------------|-------------------------------|







        T  Thumb
        B  Bend
        R  Release
        /  Slide up
        \  Slide down
        H  Hammer-on
        P  Pull-off
        ~  Vibrato
        +  Harmonic
        x  Mute note
        .  Play note like a dot in standard notation
        ^  Ties two notes together
        (. Pause

Clipes