Martha My Dear

The Beatles

Bb
234
X13331
Bb7
34
X13131
C
123
X32010
C11
134
X3301X
Csus4
134
X3301X
D
123
XX0232
Dm7
34
X57565
Eb
234
X65343
Eb6
1234
XX1313
F
234
133211
G7
34
353433
Gm
34
355333
Gmadd9
34
357333
Tom: G
  Martha my dear though I spend my days in conversation
    Please, Remember me Martha my love
    Don't forget me Martha my dear

    Hold your head up you silly girl look what you've done
    When you find yourself in the thick of it
    Help yourself to a bit of what is all around you
    Silly Girl.

    Take a good look around you
    Take a good look you're bound to see
    That you and me were meant to be for each other
    Silly girl.

    Hold your hand out you silly girl see what you've done
    When you find yourself in the thick of it
    Help yourself to a bit of what is all around you
    Silly girl.

    Martha my dear you have always been my inspiration
    Please, be good to me Martha my love
    Don't forget me Martha my dear.




    5/4 time

#1t1#     Eb        Eb6 ....              D
#1t2#  e|----6-- --8---- ------- 6-8---- --5----|
  B|8---------------8-------------8--------|
  G|----8-------8-------8-------8-------7--|
  D|---------------------------------------|
  A|6-------6-------6-------6-------5------|
  E|---------------------------------------|#/1t2##/1t1#



#2t1#    4/4
     Gm              C               F
#2t2#  e|------- ------- 8------ 6------|------- ------- -----/- -------|
  B|11--11-11--10------------------10------------------1011-10--8--|
  G|-------------------------------|----------------10-------------|
  D|-------------------------------|--------7---10-----------------|
  A|10------8-------7-------5---7--|8---10-------------------------|
  E|--------------------8----------|-------------------------------|#/2t2##/2t1#



                                              Bb
     Eb              Abmaj7          Bb7     Bb6     abmaj7
#3t1##3t2#  e|------- ------- 3---3-- 3---3--|------- ------- ------- --3----|
  B|6-----6---6-----4---4---4---4--|9---9---8P6-----------4-----4--|
  G|----------------5---5---5---5--|7---7---7-----7---5------------|
  D|----8-------8-------6-------6--|----8-------8-------6-------6--|
  A|-------------------------------|-------------------------------|
  E|6-------6-------4-------4------|6-------6-------4-------4------|#/3t2##/3t1#




#4t1#     ....                            Bb                      Bb7
#4t2#  e|------- ------- ------- --3----|6---6-- 4P3---- ------3H4------|
  B|9---9---8P6-----------4-----4--|3---3-------6---3-6------------|
  G|7---7---7-----7---5------------|3---3--------------------------|
  D|----8-------8-------6-------6--|-------------------------------|
  A|-------------------------------|-------------------------------|
  E|6-------6-------4-------4------|-------------------------------|#/4t2##/4t1#




    00:19

#5t1##5t2#  e|----6-- --8---- ------- 6-8---- --5----|
  B|8---------------8-------------8--------|
  G|----8-------8-------8-------8-------7--|
  D|---------------------------------------|
  A|6-------6-------6-------6-------5------|
  E|---------------------------------------|#/5t2##/5t1#
    Martha    my    dear    though    my
                              I   spend



#6t1##6t2#  e|------- ------- 8------ 6------|------- ------- -----/- -------|
  B|11--11-11--10------------------10------------------1011-10--8--|
  G|-------------------------------|----------------10-------------|
  D|-------------------------------|--------7---10-----------------|
  A|10------8-------7-------5---7--|8---10-------------------------|
  E|--------------------8----------|-------------------------------|#/6t2##/6t1#
    days    conversation            Please              remember
        in



#7t1##7t2#  e|------- ------- 3---3-- 3---3--|------- ------- ------- --3----|
  B|6-----6---6-----4---4---4---4--|9---9---8P6-----------4-----4--|
  G|----------------5---5---5---5--|7---7---7-----7---5------------|
  D|----8-------8-------6-------6--|----8-------8-------6-------6--|
  A|-------------------------------|-------------------------------|
  E|6-------6-------4-------4------|6-------6-------4-------4------|#/7t2##/7t1#
    me              Martha      love                don't       me
                          my                            forget



#8t1##8t2#  e|------- ------- ------- --3----|6---6-- 4P3---- ------3 4------|
  B|9---9---8P6-----------4-----4--|3---3-------6---3-6----H-------|
  G|7---7---7-----7---5------------|3---3--------------------------|
  D|----8-------8-------6-------6--|-------------------------------|
  A|-------------------------------|-------------------------------|
  E|6-------6-------4-------4------|-------------------------------|#/8t2##/8t1#
                    Martha      dear
                          my


#9t1#    00:38
     Dm7                             Gmadd9
#9t2#  e|5---5-- 5---5-- 5---5-- 5---5--|5---5-- 5---5-- 5---5-- 5---5--|
  B|6---6---6---6---6---6---6---6--|3---3---3---3---3---3---3---3--|
  G|5---5---5---5---5---5---5---5--|3---3---3---3---3---3---3---3--|
  D|-------------------------------|-------------------------------|
  A|5---------------5--------------|--------5---------------5------|
  E|--------5---------------5------|3---------------3--------------|#/9t2##/9t1#
    Hold    your        up      you silly       girl
                head


#10t1#     F
#10t2#  e|5---5-- 5---5-- 5---5-- 5---5--|5---5-- 5---5-- 5---5-- 5---5--|
  B|6---6---6---6---6---6---6---6--|6---6---6---6---6---6---6---6--|
  G|5---5---5---5---5---5---5---5--|5---5---5---5---5---5---5---5--|
  D|3---------------3--------------|3-----------7------------------|
  A|--------3---------------3------|-------------------------------|
  E|-------------------------------|-------------------------------|#/10t2##/10t1#
    look    you've                              When    you     find
        what    done


#11t1#     Csus4           C ....
#11t2#  e|------- ------- ------- -------|------- ------- ------- -------|
  B|6---6---6---6---5---5---5---5--|6---6---6---6---5---5---5---5--|
  G|5---5---5---5---5---5---5---5--|5---5---5---5---5---5---6---6--|
  D|5---5---5---5---5---5---5---5--|5---5---5---5---5---5---7---7--|
  A|3---------------3--------------|3---------------3--------------|
  E|--------3---------------3------|--------3---------------5------|#/11t2##/11t1#
        yourself  the of            Help        to  bit what    around
                in  thick               yourself  a   of  is
                        it                                  all

#12t1#                                   (.
     Dm7                             Gmadd9
#12t2#  e|5---5-- 5---5-- 5---5-- 5---5--|5------ ------- ------- -------|
  B|6---6---6---6---6---6---6---6--|3------------------------------|
  G|5---5---5---5---5---5---5---5--|3------------------------------|
  D|0------------------------------|-------------------------------|
  A|-------------------------------|-------------------------------|
  E|-------------------------------|3------------------------------|#/12t2##/12t1#

#13t1##13t2#  e|------- ------- ------- -------|------- ------- ------- -------|
  B|-------------------------------|------6-----------6------------|
  G|-------------------------------|----7-----7-----7-----7--------|
  D|-------------------------------|8-----------8-----------5---7--|
  A|-------------------------------|-------------------------------|
  E|-------------------------------|-------------------------------|#/13t2##/13t1#
        you                 silly                           Take  good
                                  girl                          a


    DOUBLE TIME
    01:00
#14t1#     Dm7                             G7
#14t2#  e|5------ 5------ 5------ 5------|3------ 3------ 3------ 3------|
  B|6-------6-------6-------6------|6-------6-------6-------6------|
  G|5-------5-------5-------5------|4-------4-------4-------4------|
  D|7-------7-------7-------7------|5-------5-------5-------5------|
  A|-------------------------------|-------------------------------|
  E|-------------------------------|-------------------------------|#/14t2##/14t1#

#15t1##15t2#  e|5------ ------- 5------ -------|3------ 3------ 3------ 3------|
  B|6---------------6--------------|3-------3-------3-------3------|
  G|7---------------7--------------|4-------4-------4-------4------|
  D|7---------------7--------------|5-------5-------5-------5------|
  A|5---------------5--------------|5-------5-------5-------5------|
  E|-------------------------------|3-------3-------3-------3------|#/15t2##/15t1#

#16t1##16t2#  e|5------ ------- ------- -------|5------ ------- ------- -------|
  B|6------------------------------|6------------------------------|
  G|5------------------------------|4------------------------------|
  D|5------------------------------|5------------------------------|
  A|-------------------------------|-------------------------------|
  E|-------------------------------|-------------------------------|#/16t2##/16t1#
                    look                        you
                        around




#17t1##17t2#  e|3------ 3------ 3------ 3------|
  B|6-------6-------6-------6------|
  G|4-------4-------4-------4------|
  D|5-------5-------5-------5------|
  A|-------------------------------|
  E|-------------------------------|#/17t2##/17t1#

#18t1##18t2#  e|3------ ------- 3------ -------|
  B|3---------------3--------------|
  G|4---------------4--------------|
  D|5---------------5--------------|
  A|5---------------5--------------|
  E|3---------------3--------------|#/18t2##/18t1#

#19t1##19t2#  e|------- ------- ------- -------|
  B|-------------------------------|
  G|-------------------------------|
  D|-------------------------------|
  A|-------------------------------|
  E|-------------------------------|#/19t2##/19t1#
                    Take        good
                        a



#20t1#     Dm7                             G7
#20t2#  e|5------ 5------ 5------ 5------|3------ 3------ 3------ 3------|
  B|6-------6-------6-------6------|6-------6-------6-------6------|
  G|5-------5-------5-------5------|4-------4-------4-------4------|
  D|7-------7-------7-------7------|5-------5-------5-------5------|
  A|-------------------------------|-------------------------------|
  E|-------------------------------|-------------------------------|#/20t2##/20t1#

#21t1##21t2#  e|5------ ------- 5------ -------|3------ 3------ 3------ -------|
  B|6---------------6--------------|3-------3-------3--------------|
  G|7---------------7--------------|4-------4-------4--------------|
  D|7---------------7--------------|5-------5-------5--------------|
  A|5---------------5--------------|5-------5-------5--------------|
  E|-------------------------------|3-------3-------3--------------|#/21t2##/21t1#

#22t1##22t2#  e|5------ ------- ------- -------|5------ ------- ------- -------|
  B|6------------------------------|6------------------------------|
  G|5------------------------------|4------------------------------|
  D|5------------------------------|5------------------------------|
  A|-------------------------------|-------------------------------|
  E|-------------------------------|-------------------------------|#/22t2##/22t1#
                    look            bound       to          see
                        you're




#23t1##23t2#  e|3------ 3------ 3------ 3------|
  B|6-------6-------6-------6------|
  G|4-------4-------4-------4------|
  D|5-------5-------5-------5------|
  A|-------------------------------|
  E|-------------------------------|#/23t2##/23t1#

#24t1##24t2#  e|3------ ------- 3------ -------|
  B|3---------------3--------------|
  G|4---------------4--------------|
  D|5---------------5--------------|
  A|5---------------5--------------|
  E|3---------------3--------------|#/24t2##/24t1#

#25t1##25t2#  e|5------ ------- ------- -------|
  B|6------------------------------|
  G|4------------------------------|
  D|5------------------------------|
  A|-------------------------------|
  E|-------------------------------|#/25t2##/25t1#
                            that



#26t1#     C11
#26t2#  e|1------ 1------ 1------ 1------|1------ 1------ 1------ 1------|
  B|3-------3-------3-------3------|3-------3-------3-------3------|
  G|3-------3-------3-------3------|3-------3-------3-------3------|
  D|-------------------------------|-------------------------------|
  A|3-------3-------3-------3------|3-------3-------3-------3------|
  E|-------------------------------|-------------------------------|#/26t2##/26t1#

#27t1##27t2#  e|------- ------- ------- -------|------- ------- ------- -------|
  B|3---------------3--------------|3------------------------------|
  G|3---------------3--------------|3---------------3--------------|
  D|2---------------2--------------|2---------------2--------------|
  A|3---------------3--------------|3---------------3--------------|
  E|-------------------------------|-------------------------------|#/27t2##/27t1#

#28t1##28t2#  e|5------ ------- ------- -------|------- ------- ------- -------|
  B|6------------------------------|-------------------------------|
  G|7------------------------------|-------------------------------|
  D|8------------------------------|-------------------------------|
  A|-------------------------------|-------------------------------|
  E|-------------------------------|-------------------------------|#/28t2##/28t1#
    you and         me                                  were



#29t1#     Bb
#29t2#  e|1------ 1------ 1------ 1------|1------ 1------ 1------ 1------|
  B|3-------3-------3-------3------|3-------3-------3-------3------|
  G|3-------3-------3-------3------|3-------3-------3-------3------|
  D|-------------------------------|-------------------------------|
  A|1-------1-------1-------1------|1-------1-------1-------1------|
  E|-------------------------------|-------------------------------|#/29t2##/29t1#

#30t1##30t2#  e|5------ ------5 ------5 5------|------5 ------5 5------ -------|
  B|3-------------3-------3-3------|------3-x-----3-3--------------|
  G|3-------------3-------3-3------|------3-x-----3-3--------------|
  D|3-------------3-------3-3------|------3-x-----3-3--------------|
  A|-------------------------------|-------------------------------|
  E|-------------------------------|-------------------------------|#/30t2##/30t1#
    meant       to      be                          for each    other


#31t1#[ Tab from: http://www.guitaretab.com/b/beatles/1181.html ]
     Dm7
#31t2#  e|5------ 5------ 5------ 5------|5------ 5------ 5------ 5------|
  B|6-------6-------6-------6------|6-------6-------6-------6------|
  G|5-------5-------5-------5------|5-------5-------5-------5------|
  D|-------------------------------|-------------------------------|
  A|5------------------------------|5------------------------------|
  E|----------------5--------------|----------------5--------------|#/31t2##/31t1#

#32t1##32t2#  e|5------ ------- 5------ -------|5------ ------- 5------ -------|
  B|6---------------6--------------|6---------------6--------------|
  G|5---------------5--------------|5---------------5--------------|
  D|7---------------7--------------|7---------------7--------------|
  A|5---------------5--------------|5---------------5--------------|
  E|-------------------------------|-------------------------------|#/32t2##/32t1#
                                                    silly       girl


    BACK TO ORIGINAL TIME
    4/4                             2/4
   (.
#33t1#     Gm                              Eb
#33t2#  e|3------ ------- ------- -------|------- -------|
  B|3------------------------------|---------------|
  G|3------------------------------|---------------|
  D|-------------------------------|---------------|
  A|-------------------------------|---------------|
  E|3------------------------------|---------------|#/33t2##/33t1#

#34t1##34t2#  e|3------ ------- ------- -------|3---3-- 3------|
  B|3------------------------------|4---4---4------|
  G|3------------------------------|3---3---3------|
  D|5------------------------------|5---5---5------|
  A|5------------------------------|6---6---6------|
  E|3------------------------------|---------------|#/34t2##/34t1#

#35t1##35t2#  e|------- ------- ------- -------|------- -------|
  B|------6-----------6------------|8---8---8------|
  G|----7-----7-----7-----7-----7--|8---8---8------|
  D|8-----------8-----------8------|8---8---8------|
  A|-------------------------------|---------------|
  E|-------------------------------|---------------|#/35t2##/35t1#




    01:20   x               x

#36t1##36t2#  e|----6-- --8---- ------- 6-8---- --5----|
  B|8---------------8-------------8--------|
  G|----8-------8-------8-------8-------7--|
  D|---------------------------------------|
  A|6-------6-------6-------6-------5------|
  E|---------------------------------------|#/36t2##/36t1#

#37t1##37t2#  e|------- 6------ ------- 6------ 5------|
  B|--------8---------------8-------7------|
  G|--------8---------------8-------7------|
  D|--------8---------------8-------7------|
  A|--------6---------------6-------5------|
  E|---------------------------------------|#/37t2##/37t1#



    x               x               x               x

#38t1##38t2#  e|------- ------- 8------ 6------|------- ------- -----/- -------|
  B|11--11-11--10------------------10------------------1011-10--8--|
  G|-------------------------------|----------------10-------------|
  D|-------------------------------|--------7---10-----------------|
  A|10------8-------7-------5---7--|8---10-------------------------|
  E|--------------------8----------|-------------------------------|#/38t2##/38t1#

#39t1##39t2#  e|3------ 3------ 3------ 3-\----|1------ ------- ------- -------|
  B|3-------3-------5-------5-\----|1------------------------------|
  G|3-------3-------5-------5-\----|2------------------------------|
  D|5-------3-------5-------5-\----|3------------------------------|
  A|5-------5-------3-------3-\----|3------------------------------|
  E|3-------3----------------------|1------------------------------|#/39t2##/39t1#



            x               x               x               x

#40t1##40t2#  e|------- ------- 3---3-- 3---3--|------- ------- ------- --3----|
  B|6-----6---6-----4---4---4---4--|9---9---8P6-----------4-----4--|
  G|----------------5---5---5---5--|7---7---7-----7---5------------|
  D|----8-------8-------6-------6--|----8-------8-------6-------6--|
  A|-------------------------------|-------------------------------|
  E|6-------6-------4-------4------|6-------6-------4-------4------|#/40t2##/40t1#

#41t1##41t2#  e|6------ 6------ 3-----3 3-3-3--|6---6-- 6------ 3---3-3 3-3-3--|
  B|6-------6-------4-----4-4-4-4--|6---6---6-------4---4-4-4-4-4--|
  G|7-------7-------5-----5-5-5-5--|7---7---7-------5---5-5-5-5-5--|
  D|8-------8-------6-----6-6-6-6--|8---8---8-------6---6-6-6-6-6--|
  A|8-------8----------------------|8---8---8----------------------|
  E|6-------6-------4-----4-4-4-4--|6---6---6-------4---4-4-4-4-4--|#/41t2##/41t1#
#42t1#                    T
#42t2#  e|------- ------- ------- -------|------- ------- ------- -------|
  B|-------------------------------|-------------------------------|
  G|7---------------5---5---5---5--|7-------------------5----------|
  D|------------8------------------|-------------------------------|
  A|-------------------------------|-------------------------------|
  E|-------------------------------|-------------------------------|#/42t2##/42t1#



            x               x

#43t1##43t2#  e|------- ------- ------- --3----|6---6-- 4P3---- ------3H4------|
  B|9---9---8P6-----------4-----4--|3---3-------6---3-6------------|
  G|7---7---7-----7---5------------|3---3--------------------------|
  D|----8-------8-------6-------6--|-------------------------------|
  A|-------------------------------|-------------------------------|
  E|6-------6-------4-------4------|-------------------------------|#/43t2##/43t1#

#44t1##44t2#  e|6------ 6------ 3-----3 3-3-3--|------- ------- ------- -------|
  B|6-------6-------4-----4-4-4-4--|-------------------------------|
  G|7-------7-------5-----5-5-5-5--|-------------------------------|
  D|8-------8-------6-----6-6-6-6--|----8--------------------------|
  A|8-------8----------------------|----8--------------------------|
  E|6-------6-------4-----4-4-4-4--|----6--------------------------|#/44t2##/44t1#

#45t1##45t2#  e|------- ------- ------- -------|------- ------- ------- -------|
  B|-------------------------------|-------------------------------|
  G|7-------------------5----------|-------------------------------|
  D|-------------------------------|8---8--------------------------|
  A|-------------------------------|-------------------------------|
  E|-------------------------------|6---6--------------------------|#/45t2##/45t1#



    01:40

#46t1##46t2#  e|5---5-- 5---5-- 5---5-- 5---5--|5---5-- 5---5-- 5---5-- 5---5--|
  B|6---6---6---6---6---6---6---6--|3---3---3---3---3---3---3---3--|
  G|5---5---5---5---5---5---5---5--|3---3---3---3---3---3---3---3--|
  D|-------------------------------|-------------------------------|
  A|5---------------5--------------|--------5---------------5------|
  E|--------5---------------5------|3---------------3--------------|#/46t2##/46t1#

#47t1##47t2#  e|5------ 5---5-- 5------ 5------|3---3-- 3-----3 ----3-- ----3--|
  B|6-------6---6---6-------6------|6---6---6-----6-----6-------6--|
  G|7-------7---7---7-------7------|3---3---3-----3-----3-------3--|
  D|7-------7---7---7-------7------|5---5---5-----5-----5-------5--|
  A|5-------5---5---5-------5------|5---5---5-----5-----5-------5--|
  E|-------------------------------|3---3---3-----3-----3-------3--|#/47t2##/47t1#

#48t1##48t2#  e|13----- ------- ------- -------|------- ------- ------- -------|
  B|-------------------------------|----------------------------6--|
  G|-------------------------------|------------------------7------|
  D|-------------------------------|---------------------8---------|
  A|-------------------------------|-------------------------------|
  E|-------------------------------|-------------------------------|#/48t2##/48t1#
    Hold    your        up      you silly       girl
                head



#49t1##49t2#  e|5---5-- 5---5-- 5---5-- 5---5--|5---5-- 5---5-- 5---5-- 5---5--|
  B|6---6---6---6---6---6---6---6--|6---6---6---6---6---6---6---6--|
  G|5---5---5---5---5---5---5---5--|5---5---5---5---5---5---5---5--|
  D|3---------------3--------------|3-----------7------------------|
  A|--------3---------------3------|-------------------------------|
  E|-------------------------------|-------------------------------|#/49t2##/49t1#

#50t1##50t2#  e|1------ 1---1-- 1-----1 1---1--|1------ 1------ 1------ 1------|
  B|1-------3---3---3-----3-3---3--|3-------3-------3-------3------|
  G|2-------2---2---2-----2-2---2--|2-------2-------2-------2------|
  D|3------------------------------|-------------------------------|
  A|3-------3---3---3-----3-3---3--|3-------3-------3-------3------|
  E|1-------1---1---1-----1-1---1--|1-------1-------1-------1------|#/50t2##/50t1#

#51t1##51t2#  e|5------ ------- ------- -------|------- ------- ------- -------|
  B|----------------6--------------|----------------5---6----------|
  G|-------------------------------|--------5---7-----------5------|
  D|-------------------------------|7---8-----------------------7--|
  A|-------------------------------|-------------------------------|
  E|-------------------------------|-------------------------------|#/51t2##/51t1#
    see     you've                              When    you     find
        what    done



#52t1##52t2#  e|------- ------- ------- -------|------- ------- ------- -------|
  B|6---6---6---6---5---5---5---5--|6---6---6---6---5---5---5---5--|
  G|5---5---5---5---5---5---5---5--|5---5---5---5---5---5---6---6--|
  D|5---5---5---5---5---5---5---5--|5---5---5---5---5---5---7---7--|
  A|3---------------3--------------|3---------------3--------------|
  E|--------3---------------3------|--------3---------------5------|#/52t2##/52t1#

#53t1##53t2#  e|3------ 3------ 3------ 3------|3------ 3------ 3------ -------|
  B|6-------6-------5-------5------|6-------6-------5--------------|
  G|3-------3-------5-------5------|3-------3-------5--------------|
  D|5-------5-------5-------5------|5-------5-------5--------------|
  A|5-------5-------3-------3------|5-------5-------3--------------|
  E|3-------3----------------------|3-------3---------------5------|#/53t2##/53t1#

#54t1##54t2#  e|------- ------- ------- -------|------- ------- ------- -------|
  B|-------------------------------|----------------5-------6---5--|
  G|5------------------------------|7------------------------------|
  D|-------------------------------|-------------------------------|
  A|-------------------------------|-------------------------------|
  E|-------------------------------|-------------------------------|#/54t2##/54t1#
        yourself  the of            Help        to  bit what    around
                in  thick               yourself  a   of  is
                        it                                  all

                                   (.

#55t1##55t2#  e|5---5-- 5---5-- 5---5-- 5---5--|5------ ------- ------- -------|
  B|6---6---6---6---6---6---6---6--|3------------------------------|
  G|5---5---5---5---5---5---5---5--|3------------------------------|
  D|0------------------------------|-------------------------------|
  A|-------------------------------|-------------------------------|
  E|-------------------------------|3------------------------------|#/55t2##/55t1#

#56t1##56t2#  e|5------ 5------ 5------ 5------|3------ ------- ------- -------|
  B|6-------6-------6-------6------|3------------------------------|
  G|7-------7-------7-------7------|3------------------------------|
  D|7-------7-------7-------7------|5------------------------------|
  A|5-------5-------5-------5------|5------------------------------|
  E|-------------------------------|3------------------------------|#/56t2##/56t1#

#57t1##57t2#  e|------- ------- ------- -------|------- ------- ------- -------|
  B|6------------------------------|------6-----------6------------|
  G|-------------------------------|----7-----7-----7-----7--------|
  D|-------------------------------|8-----------8-----------5---7--|
  A|-------------------------------|-------------------------------|
  E|-------------------------------|-------------------------------|#/57t2##/57t1#

        you                 silly
                                  girl



#58t1##58t2#  e|------- -------|
  B|8---9--10------|
  G|8---8---8------|
  D|8---8---8------|
  A|---------------|
  E|---------------|#/58t2##/58t1#

#59t1##59t2#  e|6---6-- 6------|
  B|8---6---8------|
  G|8---8---8------|
  D|8---8---8------|
  A|6---6---6------|
  E|---------------|#/59t2##/59t1#

#60t1##60t2#  e|------- -------|
  B|---------------|
  G|---------------|
  D|8---6---5------|#/60t2##/60t1#
#61t1#  A18---8---6------|
#61t2#  E|---------------|#/61t2##/61t1#




    02:03

#62t1##62t2#  e|----6-- --8---- ------- 6-8---- --5----|
  B|8---------------8-------------8--------|
  G|----8-------8-------8-------8-------7--|
  D|---------------------------------------|
  A|6-------6-------6-------6-------5------|
  E|---------------------------------------|#/62t2##/62t1#
    Martha      my  dear    you have
                                  always



#63t1##63t2#  e|------- ------- 8------ 6------|------- ------- -----/- -------|
  B|11--11-11--10------------------10------------------1011-10--8--|
  G|-------------------------------|----------------10-------------|
  D|-------------------------------|--------7---10-----------------|
  A|10------8-------7-------5---7--|8---10-------------------------|
  E|--------------------8----------|-------------------------------|#/63t2##/63t1#
    been    inspiration             Please              be  good
        my                                                      to



#64t1##64t2#  e|------- ------- 3---3-- 3---3--|------- ------- ------- --3----|
  B|6-----6---6-----4---4---4---4--|9---9---8P6-----------4-----4--|
  G|----------------5---5---5---5--|7---7---7-----7---5------------|
  D|----8-------8-------6-------6--|----8-------8-------6-------6--|
  A|-------------------------------|-------------------------------|
  E|6-------6-------4-------4------|6-------6-------4-------4------|#/64t2##/64t1#
    me              Martha      love                Don't       me
                          my                            forget



#65t1##65t2#  e|------- ------- ------- --3----|6---6-- 4P3---- ------3H4---4--|
  B|9---9---8P6-----------4-----4--|3---3-------6---3-6---------3--|
  G|7---7---7-----7---5------------|3---3-----------------------3--|
  D|----8-------8-------6-------6--|-------------------------------|
  A|-------------------------------|-------------------------------|
  E|6-------6-------4-------4------|-------------------------------|#/65t2##/65t1#
                    Martha      dear
                          my

   (.

#66t1##66t2#  e|3------ ------- ------- -------|------- ------- ------- -------|
  B|4------------------------------|-------------------------------|
  G|3------------------------------|-------------------------------|
  D|5------------------------------|-------------------------------|
  A|-------------------------------|-------------------------------|
  E|-------------------------------|-------------------------------|#/66t2##/66t1#







        T  Thumb
        B  Bend
        R  Release
        /  Slide up
        \  Slide down
        H  Hammer-on
        P  Pull-off
        ~  Vibrato
        +  Harmonic
        x  Mute note
        .  Play note like a dot in standard notation
        ^  Ties two notes together
        (. Pause
Composição: Colaboração e revisão: RENATO VINCE