busca

Matchbox

The Beatles

Tom: D
E |------ ------ ------ ------|------ ------ ------ ------|
B |---------------------------|---------------------------|
G |---------------------------|---------------------------|
D |2---2------2------2------2-|2---2------2------2------2-|
A |0------3------0------3-----|0------3------0------3-----|
E |---------------------------|---------------------------|

E |------ ------ ------ ------|------ ------ ------ ------|
B |---------------------------|---------------------------|
G |---------------------------|---------------------------|
D |---------------------------|---------------------------|
A |0-------------0------------|0-------------0------------|
E |-------3B4-----------3B4---|-------3B4-----------3B4---|

     A
E |------ ------ ------ ------|------ ------ ------ ------|
B |---------------------------|---------------------------|
G |---------------------------|---------------------------|
D |2---2---------2---2--------|2---2---------2---2--------|
A |0------3---4---------3---4-|0------3---4---------3---4-|
E |---------------------------|---------------------------|

E |------ ------ ------ ------|------ ------ ------ ------|
B |---------------------------|---------------------------|
G |---------------------------|---------------------------|
D |2---2---------2---2--------|2---2---------2---2--------|
A |0------3---4---------3---4-|0------3---4---------3---4-|
E |---------------------------|---------------------------|

E |------ ------ ------ ------|------ ------ ------ ------|
B |---------------------------|---------------------------|
G |---------------------------|---------------------------|
D |2---2---------2---2--------|2---2---------2---2------0-|
A |0------3---4---------3---4-|0------3---4---------3B4---|
E |---------------------------|---------------------------|

     D
E |------ ------ ------ ------|------ ------ ------ ------|
B |---------------------------|---------------------------|
G |2---2---------2---2--------|2---2---------2---2--------|
D |0------3---4---------3---4-|0------3---4---------3---4-|
A |---------------------------|---------------------------|
E |---------------------------|---------------------------|

     A
E |------ ------ ------ ------|------ ------ ------ ------|
B |---------------------------|---------------------------|
G |---------------------------|---------------------------|
D |2---2---------2---2--------|2---2---------2---2--------|
A |0------3---4---------3---4-|0------3---4---------3---4-|
E |---------------------------|---------------------------|

     E                           D
E |------ ------ ------ ------|------ ------ ------ ------|
B |---------------------------|---------------------------|
G |---------------------------|---------------------------|
D |2---2---------2---2--------|0---0---------0---0--------|
A |-------5B--2---------5B----|-------3B--0---------3B----|
E |---------------------------|---------------------------|

     A
E |------ ------ ------ ------|------ ------ ------ ------|
B |---------------------------|---------------------------|
G |---------------------------|---------------------------|
D |2---2---------2---2--------|2---2---------2---2--------|
A |0------3---4---------3---4-|0------3---4---------3---4-|
E |---------------------------|---------------------------|

E |------ ------ ------ ------|------ ------ ------ ------|
B |---------------------------|---------------------------|
G |---------------------------|---------------------------|
D |2---2---------2---2--------|2---2---------2---2--------|
A |0------3---4---------3---4-|0------3---4---------3---4-|
E |---------------------------|---------------------------|

E |------ ------ ------ ------|------ ------ ------ ------|
B |---------------------------|---------------------------|
G |---------------------------|---------------------------|
D |2---2---------2---2--------|2---2---------2---2--------|
A |0------3---4---------3---4-|0------3---4---------3---4-|
E |---------------------------|---------------------------|

     D
E |------ ------ ------ ------|------ ------ ------ ------|
B |---------------------------|---------------------------|
G |2---2---------2---2--------|2---2---------2---2--------|
D |0-------------0------------|0-------------0----------0-|
A |-------3---0---------3---0-|-------3---0---------3-----|
E |---------------------------|---------------------------|

     A
E |------ ------ ------ ------|------ ------ ------ ------|
B |---------------------------|---------------------------|
G |---------------------------|---------------------------|
D |2---2---------2---2--------|2---2---------2---2--------|
A |0------3---4---------3---4-|0------3---4---------3---4-|
E |---------------------------|---------------------------|

     E                           D
E |------ ------ ------ ------|------ ------ ------ ------|
B |---------------------------|---------------------------|
G |---------------------------|---------------------------|
D |2---2---------2---2------2-|0---0---------0---0------0-|
A |-------5B--2---------5B----|-------3B--0---------3B----|
E |---------------------------|---------------------------|

     A
E |------ ------ ------ ------|------ ------ ------ ------|
B |---------------------------|---------------------------|
G |---------------------------|---------------------------|
D |2---2---------2---2--------|2---2---------2---2--------|
A |0------3---4---------3---4-|0------3---4---------3---4-|
E |---------------------------|---------------------------|

E |------ ------ ------ ------|------ ------ ------ ------|
B |---------------------------|---------------------------|
G |---------------------------|---------------------------|
D |2---2---------2---2--------|2---2---------2---2--------|
A |0------3---4---------3---4-|0------3---4---------3---4-|
E |---------------------------|---------------------------|

E |------ ------ ------ ------|------ ------ ------ ------|
B |---------------------------|---------------------------|
G |---------------------------|---------------------------|
D |2---2---------2---2--------|2---2---------2---2--------|
A |0------3---4---------3---4-|0------3---4---------3---4-|
E |---------------------------|---------------------------|

     D
E |------ ------ ------ ------|------ ------ ------ ------|
B |---------------------------|---------------------------|
G |2---2---------2---2--------|2---2---------2---2--------|
D |0------3---4---------3---4-|0------3---4---------3---4-|
A |---------------------------|---------------------------|
E |---------------------------|---------------------------|

     A
E |------ ------ ------ ------|------ ------ ------ ------|
B |---------------------------|---------------------------|
G |---------------------------|---------------------------|
D |2---2---------2---2--------|2---2---------2---2--------|
A |0------3---4---------3---4-|0------3---4---------3---4-|
E |---------------------------|---------------------------|

     E                           D
E |------ ------ ------ ------|------ ------ ------ ------|
B |---------------------------|---------------------------|
G |---------------------------|2---2---------2---2--------|
D |2---2---------2---2--------|0------3---4---------3---4-|
A |-------5B------------5B----|---------------------------|
E |---------------------------|---------------------------|

     A
E |------ ------ ------ ------|------ ------ ------ ------|
B |---------------------------|---------------------------|
G |---------------------------|---------------------------|
D |2---2---------2---2--------|2---2---------2---2--------|
A |0------3---4---------3---4-|0------3---4---------3---4-|
E |---------------------------|---------------------------|

E |------ ------ ------ ------|------ ------ ------ ------|
B |---------------------------|-----/-5----------5------5-|
G |---------------------------|---------------------------|
D |---------------------------|---------------------------|
A |---------------------------|---------------------------|
E |---------------------------|---------------------------|

E |------ ------ ------ ------|------ ------ 5---8B9----5-|
B |----5------5--5-~----------|----5------7---------------|
G |---------------------------|---------------------------|
D |---------------------------|---------------------------|
A |---------------------------|---------------------------|
E |---------------------------|---------------------------|

E |------ ------ ------ ------|------ ------ ------ ------|
B |----8--5---5-----5---------|5------5---------5---------|
G |-----------7B9R7-5H7P5-----|5------5---8-\7--5H7P5-----|
D |-------------------------5-|----7--------------------7-|
A |---------------------------|---------------------------|
E |---------------------------|---------------------------|

     D
E |------ ------ ------ ------|------ ------ ------ ------|
B |5------5------5------5---5-|----5---------5-----5------|
G |5------5------5------5---5-|----5---------5-----5------|
D |-----------7------7--------|---------------------------|
A |---------------------------|---------------------------|
E |---------------------------|---------------------------|

     A
E |------ ------ ------ ------|------ ------ ------ ------|
B |-------5------5---5------5-|---------------------------|
G |-------6------6---6------6-|-------7B8----7-P-5--------|
D |---------------------------|---------------------7---5-|
A |---------------------------|---------------------------|
E |---------------------------|---------------------------|

     E                           D
E |------ ------ ------ ------|------ ------ ------ ------|
B |---------------------------|-------5----------5--------|
G |---------------------------|5------5---7-B-9-----7---5-|
D|7P5----5------5------5---7-|----7----------------------|
A |----7------7------7--------|---------------------------|
E |---------------------------|---------------------------|

     A
E |------ ------ ------ ------|------ ------ ------ ------|
B |---------------------------|---------------------------|
G |-------5------5---5------5-|-------5---5---------------|
D |0------7------7---7------7-|-------7---7---------------|
A |---------------------------|---------------------------|
E |---------------------------|---------------------------|

E |------ ------ ------ ------|------ ------ ------ ------|
B |---------------------------|---------------------------|
G |---------------------------|---------------------------|
D |2---2---------2---2--------|2---2---------2---2--------|
A |0------3---4---------3---4-|0------3---4---------3---4-|
E |---------------------------|---------------------------|

E |------ ------ ------ ------|------ ------ ------ ------|
B |---------------------------|---------------------------|
G |---------------------------|---------------------------|
D |2---2---------2---2--------|2---2---------2---2--------|
A |0------3---4---------3---4-|0------3---4---------3---4-|
E |---------------------------|---------------------------|

     D
E |------ ------ ------ ------|------ ------ ------ ------|
B |---------------------------|---------------------------|
G |--------------2---2--------|--------------2---2--------|
D |0---0--3---4---------3---4-|0---0--3---4---------3---4-|
A |---------------------------|---------------------------|
E |---------------------------|---------------------------|

     A
E |------ ------ ------ ------|------ ------ ------ ------|
B |---------------------------|---------------------------|
G |---------------------------|---------------------------|
D |--------------2---2--------|--------------2---2--------|
A |0---0--3---4---------3---4-|0---0--3---4---------3---4-|
E |---------------------------|---------------------------|

     E                           D
E |------ ------ ------ ------|------ ------ ------ ------|
B |---------------------------|---------------------------|
G |---------------------------|---------------------------|
D |2---2---------2---2------2-|0---0---------0---0------0-|
A |-------5B--2---------5B----|-------3B--0---------3B----|
E |---------------------------|---------------------------|

     A
E |------ ------ ------ ------|------ ------ ------ ------|
B |---------------------------|---------------------------|
G |---------------------------|---------------------------|
D |2---2---------2---2--------|2---2---------2---2--------|
A |0------3---4---------3---4-|0------3---4---------3---4-|
E |---------------------------|---------------------------|

E |------ ------ ------ ------|------ ------ ------ ------|
B |---------------------------|---------------------------|
G |---------------------------|---------------------------|
D |2---2---------2---2--------|2---2---------2---2--------|
A |0------3---4---------3---4-|0------3---4---------3---4-|
E |---------------------------|---------------------------|

E |------ ------ ------ ------|------ ------ ------ ------|
B |---------------------------|---------------------------|
G |---------------------------|---------------------------|
D |2---2---------2---2--------|----2---------2---2--------|
A |0------3---4---------3---4-|0------3---4---------3---4-|
E |---------------------------|---------------------------|

E |------ ------ ------ ------|------ ------ ------ ------|
B |---------------------------|---------------------------|
G |---------------------------|---------------------------|
D |---------------------------|---------------------------|
A |---------------------------|0------2------3------4-----|
E |---------------------------|---------------------------|

     D
E |------ ------ ------ ------|------ ------ ------ ------|
B |---------------------------|---------------------------|
G |---------------------------|--------------2---2--------|
D |0---0---------0---0--------|0---0--3---4---------3---4-|
A |-------3---0---------3---0-|---------------------------|
E |---------------------------|---------------------------|

     A
E |------ ------ ------ ------|------ ------ ------ ------|
B |---------------------------|---------------------------|
G |---------------------------|---------------------------|
D |--------------2---2--------|--------------2---2--------|
A |0---0--3---4---------3---4-|0---0--3---4---------3---4-|
E |---------------------------|---------------------------|

     E                           D
E |------ ------ ------ ------|------ ------ ------ ------|
B |---------------------------|---------------------------|
G |---------------------------|---------------------------|
D |2---2---------2---2------2-|0---0---------0---0------0-|
A |-------5B--2---------5B----|-------3B--0---------3B----|
E |---------------------------|---------------------------|

     A                                                A13
E |------ ------ ------ ------|------ ------ ------ 5-----|
B |----8---------7------7-----|6----------5---------7-----|
G |----9---------8------8-----|7----------6---------6-----|
D |---------------------------|-------5---7---------5-----|
A |---------------------------|---------------------7-----|
E |---------------------------|---------------------5-----|

Clipes

Cifra Club Pro

Aproveite o Cifra Club com benefícios exclusivos e sem anúncios
7 dias grátis
Cifra Club Pro
Aproveite o Cifra Club com benefícios exclusivos e sem anúncios
7 dias grátis