busca

Rip It Up / Shake Rattle And Roll / Blue Suede Shoes (Medley)

The Beatles

(refrão)
  (00:09)

G|-------------------------4-------|---------------------------------|
D|---------4-------7---------------|-7-------9-------7---------------|
A|-5-------------------------------|---------------------------------|
E|---------------------------------|---------------------------------|

G|-------------------------4-------|---------------------------------|
D|---------4-------7---------------|-7-------9-------7-------9-------|
A|-5-------------------------------|---------------------------------|
E|---------------------------------|---------------------------------|

G|---------------------------------|---------------------------------|
D|-7-------9-------7-------7-------|-7-------7-------7-------7-------|
A|---------------------------------|---------------------------------|
E|---------------------------------|---------------------------------|

G|---------------------------------|---------------------------------|
D|-------------------------4-------|---------------------------------|
A|---------4-------7---------------|-7-------9-------7-------9-------|
E|-5-------------------------------|---------------------------------|

(solo guitarra)
  (00:20)

G|-------------------------4-------|---------------------------------|
D|---------4-------7---------------|-7-------9-------7-------9-------|
A|-5-------------------------------|---------------------------------|
E|---------------------------------|---------------------------------|

G|---------------------------------|---------------------------------|
D|-7-------------------------------|-------------------------4-------|
A|---------9-------7---------------|---------4-------7---------------|
E|-------------------------9-------|-5-------------------------------|

(refão)
  (00:26)

G|-------------------------4-------|---------------------------------|
D|---------4-------7---------------|-7-------9-------7-------9-------|
A|-5-------------------------------|---------------------------------|
E|---------------------------------|---------------------------------|

G|---------------------------------|---------------------------------|
D|-------------------------4-------|---------------------------------|
A|---------4-------7---------------|-7-------9-------7-------9-------|
E|-5-------------------------------|---------------------------------|

G|-------------------------6-------|-------------------------4-------|
D|---------6-------9---------------|---------4-------7---------------|
A|-7-------------------------------|-5-------------------------------|
E|---------------------------------|---------------------------------|

G|---------------------------------|---------------------------------|
D|-------------------------4-------|-7-------------------------------|
A|---------4-------7---------------|---------9-------7---------------|
E|-5-------------------------------|-------------------------9-------|

(verso)
  (00:36)

G|---------------------------------|---------------------------------|
D|---------------------------------|-7-------------------------------|
A|-----------------4-------7-------|---------9-------7---------------|
E|-5-------------------------------|-------------------------9-------|

G|---------------------------------|---------------------------------|
D|---------------------------------|---------------------------------|
A|-------------------------7-------|-------------------------7-------|
E|-5-----------7---9---------------|-5-----------7---9---------------|

G|---------------------------------|---------------------------------|
D|-------------------------7-------|---------------------------------|
A|-5-----------7---9---------------|-5-----------5---7-------5-------|
E|---------------------------------|---------------------------------|

G|---------------------------------|---------------------------------|
D|---------------------------------|---------------------------------|
A|-------------------------7-------|-------------------------7-------|
E|-5--------------/9---------------|-5--------------/9---------------|

G|---------------------------------|---------------------------------|
D|-----------------6-------9-------|-----------------7---------------|
A|-7-------------------------------|-5-----------------------9-------|
E|---------------------------------|---------------------------------|

G|---------------------------------|---------------------------------|
D|---------------------------------|---------------------------------|
A|-------------------------7-------|-------------------------7-------|
E|-5-----------7---9---------------|-5-----------7---9---------------|

(refrão)
  (00:53)

G|---------------------------------|---------------------------------|
D|---------------------------------|---------------------------------|
A|-------------------------7-------|-------------------------7-------|
E|-5--------------/9---------------|-5--------------/9---------------|

G|---------------------------------|---------------------------------|
D|---------------------------------|---------------------------------|
A|-------------------------7-------|-------------------------7-------|
E|-5--------------/9---------------|-5--------------/9---------------|

G|---------------------------------|-7-------------------------------|
D|-------------------------7-------|-------------------------7-------|
A|-5--------------/9---------------|----------------/9---------------|
E|---------------------------------|---------------------------------|

G|---------------------------------|---------------------------------|
D|---------------------------------|---------------------------------|
A|-------------------------7-------|-------------------------7-------|
E|-5--------------/9---------------|-5--------------/9---------------|

G|---------------------------------|---------------------------------|
D|----------------/6-------9-------|-------------------------7-------|
A|-7-------------------------------|-5--------------/9---------------|
E|---------------------------------|---------------------------------|

G|---------------------------------|---------------------------------|
D|---------------------------------|---------------------------------|
A|---------4-------5-------6-------|-7-------------------------------|
E|-5-------------------------------|-----9---7---4-----------5-------|

G|---------------------------------|---------------------------------|
D|---------------------------------|---------------------------------|
A|---------------------------------|---------------------------------|
E|---------------------------------|---------------------------------|

(verso)
  (01:14)

G|---------------------------------|---------------------------------|
D|---------------------------------|-7-------------------------------|
A|-0-------------------------------|---------------------------------|
E|---------------------------------|---------------------------------|

G|---------------------------------|---------------------------------|
D|-7-------------------------------|---------------------------------|
A|---------------------------------|-0-------------------------------|
E|---------------------------------|---------------------------------|

G|---------------------------------|---------------------------------|
D|---------------------------------|---------------------------------|
A|-0-------------------------------|-0-------------------------------|
E|---------------------------------|---------------------------------|

G|---------------------------------|---------------------------------|
D|---------------------------------|---------------------------------|
A|-0-------------------------------|-0-------0-------2-------4-------|
E|---------------------------------|---------------------------------|

(refrão)
  (01:26)

G|-------------------------4-------|-------------------------4-------|
D|---------4-------7---------------|---------4-------7-----------7---|
A|-5-------------------------------|-5-------------------------------|
E|---------------------------------|---------------------------------|

G|---------------------------------|---------------------------------|
D|-------------------------4-------|-------------------------4-------|
A|---------4-------7---------------|---------4-------7---------------|
E|-5-------------------------------|-5-------------------------------|

G|---------------------------------|-------------------------4-------|
D|---------------------------------|---------4-------7---------------|
A|-----------------2-------4-------|-5-------------------------------|
E|-0-------4-----------------------|---------------------------------|

G|---------------------------------|---------------------------------|
D|---------------------------------|---------------------------------|
A|-7-------5-------7-------9-------|-7-------9-------7-------5-------|
E|---------------------------------|---------------------------------|

(solo guitarra)
  (01:38)

G|---------------------------------|---------------------------------|
D|-------------------------4-------|-7-------------------------------|
A|---------4-------7---------------|---------9-------7---------------|
E|-5-------------------------------|-------------------------9-------|

G|---------------------------------|---------------------------------|
D|---------------------------------|-7-------------------------------|
A|-7-------5-------7-------9-------|---------9---------------7-------|
E|---------------------------------|-----------------9---------------|

G|-------------------------4----4--|-5----5--4-----------------------|
D|---------4-------7---------------|-----------------7-------9-------|
A|-5-------------------------------|---------------------------------|
E|---------------------------------|---------------------------------|

G|---------------------------------|---------------------------------|
D|-------------------------4-------|---------------------------------|
A|---------4-------7---------------|-5-------7-------9-------7-------|
E|-5-------------------------------|---------------------------------|

G|---------------------------------|---------------------------------|
D|---------------------------------|-7-----5---------7-------5-------|
A|-----------------2---------------|---------------------------------|
E|-0-------4---------------4-------|---------------------------------|

G|---------------------------------|---------------------------------|
D|-------------------------7-------|-7-------------------------------|
A|-7---------------7---------------|---------9-------7---------------|
E|---------9-----------------------|-------------------------9-------|

(verso)
  (01:56)

G|---------------------------------|---------------------------------|
D|-7-------------------------------|---------------------------------|
A|---------------------------------|-0-------------------------------|
E|---------------------------------|---------------------------------|

G|---------------------------------|---------------------------------|
D|---------------------------------|---------------------------------|
A|-0-------------------------------|-0-------------------------------|
E|---------------------------------|---------------------------------|

G|---------------------------------|---------------------------------|
D|---------------------------------|---------------------------------|
A|-0-------------------------------|-0-------------------------------|
E|---------------------------------|---------------------------------|

G|---------------------------------|---------------------------------|
D|---------------------------------|---------------------------------|
A|-0-------------------------------|-0-------0-------2-------4-------|
E|---------------------------------|---------------------------------|

(refrão)
  (02:09)

G|-------------------------4-------|-5-------------------------------|
D|---------4-------7---------------|-----------------7-------4-------|
A|-5-------------------------------|---------------------------------|
E|---------------------------------|---------------------------------|

G|---------------------------------|---------------------------------|
D|-------------------------4-------|-------------------------4-------|
A|---------4-------7---------------|---------4-------7---------------|
E|-5-------------------------------|-5-------------------------------|

G|---------------------------------|-------------------------4-------|
D|---------------------------------|---------4-------7---------------|
A|-----------------2-------4-------|-5-------------------------------|
E|-0-------4-----------------------|---------------------------------|

G|---------------------------------|---------------------------------|
D|-------------------------4-------|-7-------------------------------|
A|---------4-------7---------------|---------9-------7---------------|
E|-5-------------------------------|-------------------------5-------|

(solo teclado)
  (02:21)

G|---------------------------------|---------------------------------|
D|-------------------------4-------|-7-------------------------------|
A|---------4-------7---------------|---------9-------7---------------|
E|-5-------------------------------|-------------------------9-------|

G|---------------------------------|---------------------------------|
D|-------------------------4-------|-5-------4-----------------------|
A|---------4-------7---------------|-----------------7---------------|
E|-5-------------------------------|-------------------------9-------|

G|---------------------------------|---------------------------------|
D|---------4-------7---------------|-7-------4-----------------------|
A|-5-------------------------------|-----------------5---------------|
E|---------------------------------|-------------------------5-------|

G|---------------------------------|---------------------------------|
D|-------------------------4-------|-5----5--4-------3-------2-------|
A|---------4-------7---------------|---------------------------------|
E|-5-------------------------------|---------------------------------|

G|---------------------------------|-------------------------4-------|
D|---------------------------------|---------4-------7---------------|
A|-----------------2-------4-------|-5-------------------------------|
E|-0-------4-----------------------|---------------------------------|

G|---------------------------------|---------------------------------|
D|-------------------------4-------|-7----7----------7---------------|
A|---------4-------7---------------|---------9---------------7-------|
E|-5-------------------------------|---------------------------------|

(outro)
  (02:40)

G|---------------------------------|---------------------------------|
D|-------------------------4-------|-7-------------------------------|
A|---------4-------7---------------|---------9-------7---------------|
E|-5-------------------------------|-------------------------9-------|

G|---------------------------------|---------------------------------|
D|-------------------------4-------|-7-------------------------------|
A|---------4-------7---------------|---------9-------7---------------|
E|-5-------------------------------|-------------------------9-------|

G|-------------------------4-------|-------------------------4-------|
D|---------4-------7---------------|---------4-------7---------------|
A|-5-------------------------------|-5-------------------------------|
E|---------------------------------|---------------------------------|

G|---------------------------------|---------------------------------|
D|-------------------------4-------|---------------------------------|
A|---------4-------7---------------|---------4-------7-------4-------|
E|-5-------------------------------|-5-------------------------------|

G|---------------------------------|---------------------------------|
D|---------------------------------|---------------------------------|
A|-----------------2---------------|-5-------7-------9-------7-------|
E|-0-------4---------------4-------|---------------------------------|

G|---------------------------------|---------------------------------|
D|---------------------------------|---------6---7-------------------|
A|---------4-------5-------6-------|-7---9---------------------------|
E|-5-------------------------------|-------------------------5-------|

G|---------------------------------|---------------------------------|
D|---------------------------------|---------------------------------|
A|---------------------------------|---------------------------------|
E|---------------------------------|---------------------------------|

  (03:01)

G|---------------------------------|---------------------------------|
D|---------------------------------|-6---7-------7-------------------|
A|-5---------------7-------7---9---|---------------------------------|
E|---------5-----------------------|---------------------------------|

G|---------------------------------|---------------------------------|
D|---------------------------------|-6---7---------------------------|
A|-5---------------7-------7---9---|---------------------------------|
E|---------5-----------------------|---------------------------------|

Clipes