busca

Nowhere Man

The Beatles

Tom: C#m
[Riff]

E|-------------|
B|-------------|
G|--2-1--------|
D|------2------|
A|--------2----|
E|-------------|

[Solo]
        E       B9       A          E       F#m     Am     E
E|---0-0--------0-2---0--------------------------------------------H12-|
B|---0-0-0---4----4---2-2----------0-----------------------------------|
G|---1---1---4--4-4---2---2---2--1-2-1---2-2-----2-2-------------------|
D|---2-------4--------0-------2--2-2-2---2-2-4---2-2-------------------|
A|-------------------------------2-------0-------0----3----------------|
E|-------------------------------------------------------8-7-7---7/0---|

E           B9
He's a real nowhere man
A              E
Sitting in his nowhere land
F#m            Am                E
Making all his nowhere plans for nobody

E             B9
Doesn't have a point of view
A                   E
Knows not where he's going to
F#m                 Am
Isn't he a bit like you and me

        G#m          A
Nowhere man, please listen
           G#m              A
You don't know what you're missing
        G#m      A             B9      B7
Nowhere man, the world is at your command

[Solo]
        E       B9       A          E       F#m     Am     E
E|---0-0--------0-2---0--------------------------------------------H12-|
B|---0-0-0---4----4---2-2----------0-----------------------------------|
G|---1---1---4--4-4---2---2---2--1-2-1---2-2-----2-2-------------------|
D|---2-------4--------0-------2--2-2-2---2-2-4---2-2-------------------|
A|-------------------------------2-------0-------0----3----------------|
E|-------------------------------------------------------8-7-7---7/0---|

E                 B9
He's as blind as he can be
A                   E
Just sees what he wants to see
F#m           Am
Nowhere man can you see me at all?

         G#m         A
Nowhere man, don't worry
         G#m         A
Take your time, don't hurry
         G#m        A              B9        B7
Leave it all till somebody else lends you a hand

E             B9
Doesn't have a point of view
A                   E
Knows not where he's going to
F#m                 Am
Isn't he a bit like you and me

        G#m          A
Nowhere man, please listen
           G#m              A
You don't know what you're missing
        G#m      A             B9      B7
Nowhere man, the world is at your command

E           B9
He's a real nowhere man
A              E
Sitting in his nowhere land
F#m            Am                E
Making all his nowhere plans for nobody
F#m            Am                E
Making all his nowhere plans for nobody
F#m            Am                E
Making all his nowhere plans for nobody

Clipes

Cifra Club Pro

Aproveite o Cifra Club com benefícios exclusivos e sem anúncios
7 dias grátis
Cifra Club Pro
Aproveite o Cifra Club com benefícios exclusivos e sem anúncios
7 dias grátis