Octopus's Garden

The Beatles

A
123
X02220
B
234
X24442
C#m
234
X46654
D
123
XX0232
E
123
022100
F#m
34
244222
Tom: G
(intro) B E
        B A B
        E C#m A B

#1t1##1t2#-----------------------------------------------
------------------12h14p12---------------------
---------9h11/13------------1311---9---11(13)-
--9h11-----------------------------------------
-----------------------------------------------
-----------------------------------------------#/1t2##/1t1#

#2t1##2t2#-----------------12---------------------------------
---------------------14p12------------10-11-12--14--
--------9h11/13-------------1311--9--11-12-13------
--9h11----------------------------------------------
----------------------------------------------------
----------------------------------------------------#/2t2##/2t1#

#3t1##3t2#----------------------------------------------------
----------------------------------------------------
--1311--9--9---11p9--------------------------------
----------------------11p9--------------------------
----------------------------11p9--7--7--9-----------
-------------------------------------------7-7-7-7--#/3t2##/3t1#

#4t1#(solo)
#4t2#---------------------14-------------------------------------------
--------12----------------------------------------17--17--17------
--11/13--------16(18)----(18)16-14-14----16/18------------------
------------------------------------------------------------------
------------------------------------------------------------------
------------------------------------------------------------------#/4t2##/4t1#

#5t1##5t2#---------------------------------19(21)-17-17---19(21)--17-17-------
---------17-17-17---------17-17-------------------------------17-17-
--16/18------------16/18--------------------------------------------
--------------------------------------------------------------------
--------------------------------------------------------------------
--------------------------------------------------------------------#/5t2##/5t1#

#6t1##6t2#-----------------------------------14------------------------------
--17-(19)17-----------------------------------------------17-17-17-
-------------14---------14--16(18)------16--14--16--16/18----------
-----------------14h16---------------------------------------------
-------------------------------------------------------------------
-------------------------------------------------------------------#/6t2##/6t1#

#7t1##7t2#---------------------------------19(21)-19(21)-19(21)-17--17--19--17-
---------17-17-17---------17-17--------------------------------------
--16/18------------16/18---------------------------------------------
---------------------------------------------------------------------
---------------------------------------------------------------------
---------------------------------------------------------------------#/7t2##/7t1#

E             C#m
I'd like to be under the sea
A                              B
In an Octopus's Garden in the shade.
E              C#m
He'd let us in knows where we've been,
A                              B
In his Octopus's Garden in the shade.
C#m
I'd ask my friends to come and see
A              B
An Octopus's Garden with me.
E              C#m
I'd like to be under the sea
A               B             E
In an Octopus's Garden in the shade.

E                C#m
We would be warm below the storm
A                                  B
In our little hideaway beneath the waves.
E                C#m
Resting our head on the sea bed
A                             B
In an Octopus's Garden near a cave.
C#m
We would sing and dance around
A                  B
Because we know we can't be found.
E              C#m
I'd like to be under the sea
A               B             E
In an Octopus's Garden in the shade.

(solo)
A F#m D   E
A F#m D E A B

E              C#m
We would shout and swim about
A                              B
The coral that lies beneath the waves.
E                C#m
Oh, what joy for every girl and boy
A                                 B
Knowing they're happy and they're safe.
C#m
We would be so happy, you and me.
A                               B
No one there to tell us what to do.
E              C#m
I'd like to be under the sea
A               B           C#m
In an Octopus's Garden with you,
A               B           C#m
In an Octopus's Garden with you,
A               B           E  B  E
In an Octopus's Garden with you,
Composição: Richard StarkeyColaboração e revisão: andre mendes