busca

Please, Please Me

The Beatles

Tom: E
(intro) (riff 1)

(riff 1)
-|---12--11--9--7--9--7--4-  2x
-|-14--13--11--9-11--9--6--
-|-------------------------
-|-------------------------
-|-------------------------
-|-------------------------


E                                A   E    G A B E
Last night I said these words to my girl
E                      A    E   (Riff 2)
I know you never even try girl

E|-----------------------
B|-----------------------
G|-----------------------
D|------2-2--------------
A|----------2-2----------
E|-0-0-------------------



     A                 F#m               C#m               A
Come on (Come on) Come on (Come on) Come on (Come on) Come on (Come on)
         E            A         B        E    (riff 1)
Please please me, oh yeah, like I please you.

You don't need me to show the way, love
Why do I always have to say, love?
Come on (Come on) Come on (Come on) Come on (Come on) Come on (Come on)
         E            A         B        E
Please please me, oh yeah, like I please you.
-|---12--11--9--7-
-|-14--13--11--9--
-|----------------
-|----------------
-|----------------
-|----------------

A
I don't want to sound complaining
B                                   E        A     E
But you know there's always rain in my heart (in my heart)
A                                 B                              E
I do all the pleasing with you, it's so hard to reason with you
     A         B               E  (riff 1)
Oh yeah, why do you make me blue?
E                                  A   E
 Last night I said these words to my girl
  G A B E
I know you never even try girl
 G A B E
Come on (Come on) Come on (Come on) Come on (Come on) Come on (Come on)
         E            A         B        E
Please please me, oh yeah, like I please you.

-|---12--11--9--7--9--7--4-  2x
-|-14--13--11--9-11--9--6--
-|-------------------------
-|-------------------------
-|-------------------------
-|-------------------------
     A          B          E        A         B       E G C B E
Oh yeah, like I please you, oh yeah, like I please you

Clipes