busca

Ready Teddy

The Beatles

G|---------------------------------|---------------------------------|
D|---------------------------------|---------------------------------|
A|---------------------------------|-------------------------0-------|
E|---------------------------------|---------------------------------|

G|---------------------------------|---------------------------------|
D|---------------------------------|---------------------------------|
A|-1-------------------------------|---------1-------3-------5-------|
E|---------------------------------|---------------------------------|

(refrão)
G|---------------------------------|---------------------------------|
D|---------5-------8-------5-------|---------5-------8-------5-------|
A|-6-------------------------------|-6-------------------------------|
E|---------------------------------|---------------------------------|

G|---------------------------------|---------------------------------|
D|-------------------------5-------|-------------------------5-------|
A|---------5-------8---------------|---------5-------8---------------|
E|-6-------------------------------|-6-------------------------------|

G|---------2-------5-------2-------|---------------------------------|
D|-3-------------------------------|---------5-------8-------5-------|
A|---------------------------------|-6-------------------------------|
E|---------------------------------|---------------------------------|

G|---------------------------------|---------------------------------|
D|---------------------------------|---------------------------------|
A|---------------------------------|-------------------------0-------|
E|-6-------------------------------|---------------------------------|

(verso)
G|---------------------------------|---------------------------------|
D|---------------------------------|---------------------------------|
A|-1-------------------------------|-------------------------0-------|
E|---------------------------------|---------------------------------|

G|---------------------------------|---------------------------------|
D|---------------------------------|---------------------------------|
A|-1-------------------------------|---------1-------3-------5-------|
E|---------------------------------|---------------------------------|

(refrão)
G|---------------------------------|---------------------------------|
D|---------5-------8-------5-------|---------5-------8-------5-------|
A|-6-------------------------------|-6-------------------------------|
E|---------------------------------|---------------------------------|

G|---------------------------------|---------------------------------|
D|---------------------------------|---------------------------------|
A|---------5-------6-------7-------|-8-------6-------5-------3-------|
E|-6-------------------------------|---------------------------------|

G|---------2-------5-------2-------|---------------------------------|
D|-3-------------------------------|---------5-------8-------5-------|
A|---------------------------------|-6-------------------------------|
E|---------------------------------|---------------------------------|

G|---------------------------------|---------------------------------|
D|---------------------------------|---------------------------------|
A|---------------------------------|---------------------------------|
E|-6-------------------------------|---------------------------------|

(verso)
G|---------------------------------|---------------------------------|
D|---------------------------------|---------------------------------|
A|-1-------------------------------|-------------------------0-------|
E|---------------------------------|---------------------------------|

G|---------------------------------|---------------------------------|
D|---------------------------------|---------------------------------|
A|-1-------------------------------|-------------------------0-------|
E|---------------------------------|---------------------------------|

G|---------------------------------|---------------------------------|
D|---------------------------------|---------------------------------|
A|-1-------------------------------|-------------------------0-------|
E|---------------------------------|---------------------------------|

G|---------------------------------|---------------------------------|
D|---------------------------------|---------------------------------|
A|-1-------------------------------|---------1-------3-------5-------|
E|---------------------------------|---------------------------------|

(refrão)
G|---------------------------------|---------------------------------|
D|---------5-------8-------5-------|---------5-------8-------5-------|
A|-6-------------------------------|-6-------------------------------|
E|---------------------------------|---------------------------------|

G|---------------------------------|---------------------------------|
D|---------------------------------|---------------------------------|
A|---------5-------8-------5-------|---------5-------8-------5-------|
E|-6-------------------------------|-6-------------------------------|

G|---------2-------5-------2-------|---------------------------------|
D|-3-------------------------------|---------5-------8-------5-------|
A|---------------------------------|-6-------------------------------|
E|---------------------------------|---------------------------------|

G|---------------------------------|---------------------------------|
D|---------------------------------|---------------------------------|
A|---------------------------------|---------------------------------|
E|-6-------------------------------|---------------------------------|

(solo)
G|---------------------------------|---------------------------------|
D|-------------------------5-------|-8-------5-----------------------|
A|---------5-------8---------------|-----------------8-------5-------|
E|-6-------------------------------|---------------------------------|

G|---------------------------------|---------------------------------|
D|---------8-------5---------------|---------------------------------|
A|-------------------------8-------|-5-----------------------8-------|
E|-6-------------------------------|---------8-------6---------------|

G|---------------------------------|---------------------------------|
D|---------5-------6-------7-------|-8-------6-------5-------3-------|
A|-6-------------------------------|---------------------------------|
E|---------------------------------|---------------------------------|

G|---------------------------------|---------------------------------|
D|---------------------------------|---------------------------------|
A|---------5-------6-------7-------|-8-------6-------5-------3-------|
E|-6-------------------------------|---------------------------------|

G|---------------------------------|---------------------------------|
D|---------------------------------|-------------------------5-------|
A|---------5-------6-------8-------|---------5-------8---------------|
E|-6-------------------------------|-6-------------------------------|

G|---------------------------------|---------------------------------|
D|-8-------6-------5-------3-------|-1-------0-----------------------|
A|---------------------------------|-----------------3-------1-------|
E|---------------------------------|---------------------------------|

(verso)
G|---------------------------------|---------------------------------|
D|---------------------------------|---------------------------------|
A|-1-------------------------------|-------------------------0-------|
E|---------------------------------|---------------------------------|

G|---------------------------------|---------------------------------|
D|---------------------------------|---------------------------------|
A|-1-------------------------------|-------------------------0-------|
E|---------------------------------|---------------------------------|

G|---------------------------------|---------------------------------|
D|---------------------------------|---------------------------------|
A|-1-------------------------------|-------------------------0-------|
E|---------------------------------|---------------------------------|

G|---------------------------------|---------------------------------|
D|---------------------------------|---------------------------------|
A|-1-------------------------------|---------1-------3-------5-------|
E|---------------------------------|---------------------------------|

(refrão)
G|---------------------------------|---------------------------------|
D|---------5-------8-------5-------|---------5-------8-------5-------|
A|-6-------------------------------|-6-------------------------------|
E|---------------------------------|---------------------------------|

G|---------------------------------|---------------------------------|
D|-------------------------5-------|-3-------5-------3-------1-------|
A|---------5-------8---------------|---------------------------------|
E|-6-------------------------------|---------------------------------|

G|---------2-------5-------2-------|---------------------------------|
D|-3-------------------------------|---------5-------8-------5-------|
A|---------------------------------|-6-------------------------------|
E|---------------------------------|---------------------------------|

G|---------------------------------|---------------------------------|
D|---------------------------------|---------------------------------|
A|---------------------------------|---------------------------------|
E|-6-------------------------------|---------------------------------|

(solo)
G|---------------------------------|---------------------------------|
D|-------------------------5-------|-8-------5-----------------------|
A|---------5-------8---------------|-----------------8-------5-------|
E|-6-------------------------------|---------------------------------|

G|---------------------------------|---------------------------------|
D|---------------------------------|---------------------------------|
A|-----------------3-------5-------|---------3-------4-------5-------|
E|-6-------------------------------|-6-------------------------------|

G|---------------------------------|---------------------------------|
D|---------5-------6-------7-------|-8-------6-------5-------3-------|
A|-6-------------------------------|---------------------------------|
E|---------------------------------|---------------------------------|

G|---------------------------------|---------------------------------|
D|---------8-------5---------------|---------8-------5---------------|
A|-------------------------8-------|-------------------------8-------|
E|-6-------------------------------|-6-------------------------------|

G|---------2-------3-------4-------|-5-------3-------2-------0-------|
D|-3-------------------------------|---------------------------------|
A|---------------------------------|---------------------------------|
E|---------------------------------|---------------------------------|

G|---------------------------------|---------------------------------|
D|---------------------------------|---------------------------------|
A|---------5-------6-------7-------|-8-------6-------5-------3-------|
E|-6-------------------------------|---------------------------------|

(verso)
G|---------------------------------|---------------------------------|
D|---------------------------------|---------------------------------|
A|-1-------------------------------|-------------------------0-------|
E|---------------------------------|---------------------------------|

G|---------------------------------|---------------------------------|
D|---------------------------------|---------------------------------|
A|-1-------------------------------|---------1-------3-------5-------|
E|---------------------------------|---------------------------------|

(refrão)
G|---------------------------------|---------------------------------|
D|---------5-------8-------5-------|---------5-------8-------5-------|
A|-6-------------------------------|-6-------------------------------|
E|---------------------------------|---------------------------------|

G|---------------------------------|---------------------------------|
D|---------------------------------|---------------------------------|
A|---------5-------8-------5-------|---------5-------8-------5-------|
E|-6-------------------------------|-6-------------------------------|

G|---------2-------5-------2-------|---------------------------------|
D|-3-------------------------------|---------5-------8-------5-------|
A|---------------------------------|-6-------------------------------|
E|---------------------------------|---------------------------------|

G|---------------------------------|---------------------------------|
D|---------------------------------|---------------------------------|
A|---------------------------------|---------------------------------|
E|-6-------------------------------|---------------------------------|

Clipes