busca

Shout

The Beatles

(intro)

G|---------------------------------|---------------------------------|
D|-9---------------9---------------|-9-------------------------------|
A|---------------------------------|---------------------------------|
E|---------------------------------|---------------------------------|

(verso 00:03)

G|---------5---------------5-------|---------------------------------|
D|-3---------------3-----------3---|-------------------------7-------|
A|---------------------------------|-5---------------5---------------|
E|---------------------------------|---------5-----------------------|

G|---------5---------------5-------|---------------------------------|
D|-3---------------3---------------|---------7---------------7-------|
A|---------------------------------|-5---------------5---------------|
E|---------------------------------|---------------------------------|

  (00:10)

G|---------------------------------|---------------------------------|
D|-3---------------3-----------3---|---------7---------------7-------|
A|---------3---------------3-------|-5---------------5---------------|
E|---------------------------------|---------------------------------|

G|---------------------------------|---------------------------------|
D|-3---------------3---------------|---------7---------------7-------|
A|---------3---------------3-------|-5---------------5---------------|
E|---------------------------------|---------------------------------|

  (00:17)

G|---------------------------------|---------------------------------|
D|-3---------------3-----------3---|---------7---------------7-------|
A|---------3---------------3-------|-5---------------5-----------5---|
E|---------------------------------|---------------------------------|

G|---------------------------------|---------------------------------|
D|-3---------------3-----------3---|---------7---------------7-------|
A|---------3---------------3-------|-5---------------5-----------5---|
E|---------------------------------|---------------------------------|

G|---------5---------------5-------|---------5---------------5-------|
D|-3---------------3-----------3---|-3---------------3-----------3---|
A|---------------------------------|---------------------------------|
E|---------------------------------|---------------------------------|

G|---------------------------------|
D|---------7---------------7-------|
A|-5---------------5-----------5---|
E|---------------------------------|

  (00:31)

G|---------5---------------5-------|---------------------------------|
D|-3---------------3-----------3---|---------7---------------7-------|
A|---------------------------------|-5---------------5-----------5---|
E|---------------------------------|---------------------------------|

G|---------5---------------5-------|---------5---------------5-------|
D|-3---------------3-----------3---|-3---------------3-----------3---|
A|---------------------------------|---------------------------------|
E|---------------------------------|---------------------------------|

G|---------------------------------|---------------------------------|
D|---------7---------------7-------|---------7---------------7-------|
A|-5---------------5---------------|-5---------------5-----------5---|
E|---------------------------------|---------------------------------|

G|---------------------------------|---------------------------------|
D|-3---------------3-----------3---|---------7---------------7-------|
A|---------3---------------3-------|-5---------------5-----------5---|
E|---------------------------------|---------------------------------|

(coro 00:46)

G|---------------------------------|---------------------------------|
D|-3---------------3---------------|---------------------------------|
A|---------3---------------3-------|-5---------------5---------------|
E|---------------------------------|---------5---------------5-------|

G|---------------------------------|---------------------------------|
D|-3---------------3---------------|---------------------------------|
A|---------3---------------3-------|-5---------------5-----------5---|
E|---------------------------------|---------5---------------5-------|

G|---------------------------------|---------------------------------|
D|-3---------------3---------------|---------------------------------|
A|---------3---------------3-------|-5---------------5-----------5---|
E|---------------------------------|---------5---------------5-------|

G|---------------------------------|---------------------------------|
D|-3---------------3---------------|---------------------------------|
A|---------3---------------3-------|-5---------------5---------------|
E|---------------------------------|---------5---------------5-------|

(verso 01:01)

G|---------------------------------|---------------------------------|
D|-3---------------3---------------|---------------------------------|
A|---------3---------------3-------|-5---------------5---------------|
E|---------------------------------|---------5---------------5-------|

G|---------------------------------|---------------------------------|
D|-3---------------3---------------|---------------------------------|
A|---------3---------------3-------|-5---------------5---------------|
E|---------------------------------|---------5---------------5-------|

G|---------------------------------|---------------------------------|
D|-3---------------3---------------|---------------------------------|
A|---------3---------------3-------|-5---------------5---------------|
E|---------------------------------|---------5---------------5-------|

G|---------------------------------|---------------------------------|
D|-3---------------3---------------|---------------------------------|
A|---------3---------------3-------|-5---------------5---------------|
E|---------------------------------|---------5---------------5-------|

G|---------------------------------|---------------------------------|
D|-3---------------3---------------|---------------------------------|
A|---------3---------------3-------|-5---------------5---------------|
E|---------------------------------|---------5---------------5-------|

(outro 01:21)

G|---------------------------------|---------------------------------|
D|-3---------------3---------------|---------------------------------|
A|---------3---------------3-------|-5---------------5---------------|
E|---------------------------------|---------5---------------5-------|

G|---------------------------------|---------------------------------|
D|-3---------------3---------------|---------------------------------|
A|---------3---------------3-------|-5---------------5---------------|
E|---------------------------------|---------5---------------5-------|

Clipes