Something

The Beatles

A
123
X02220
A/E
123
0X2220
A5
12
X022XX
A7M/E
1234
XX2224
Ab5
134
466XXX
Am
123
X02210
Am7
12
X02010
Am7M
123
X02110
C
123
X32010
C/E
123
032010
C7
1234
X3231X
C7M
12
X3200X
D
123
XX0232
D7
123
XX0212
D7(9)
1234
X5455X
E5
12
022XXX
Eb
234
X65343
F
234
133211
F#m
34
244222
F#m/E
1234
XX2222
F5
134
133XXX
G
123
320003
G/B
123
X20033
G/D
1234
X5543X
G5
134
355XXX
Gb5
134
244XXX
Tom: G
[Intro] F  Eb  G/D  C

#1t1#    F            Eb  G/D C
#1t2#E|----------------------------------------------------|
B|-10-b13r12p10--11--12--13---------------------------|
G|----------------------------------------------------|
D|----------------------------------------------------|
A|----------------------------------------------------|
E|----------------------------------------------------|#/1t2##/1t1#

[1ª Parte]

#2t1#   C7M              C7
#2t2#E|------------------0---------------------------------|
B|-----0-------0----1------------------1--------------|
G|-----0-------0----3----------------3----------------|
D|---2---2---2---2--2--------------2------------------|
A|-3-------3--------3----------3----------------------|
E|----------------------------------------------------|#/2t2##/2t1#

#3t1#   F                   C/E     D       D7     
#3t2#E|-1---------------------------2-------------2--------|
B|-1----------------1-------1--3-----------1----------|
G|-2--------------2-------0----2---------2------------|
D|-3----------3--------2-------0-------0--------------|
A|----------------------------------------------------|
E|----------------------------------------------------|#/3t2##/3t1#

#4t1#    G         Am         G/B
#4t2#E|----------------------------------------------------|
B|----------------------------------------------------|
G|--3/4--4----4/5--5-----5/7--------------------------|
D|--4/5----5--5/7-----7--7/9--------------------------|
A|----------------------------------------------------|
E|----------------------------------------------------|#/4t2##/4t1#
  C                        C7M
 Something in the way she moves
C7                           F    C/E
  Attracts me like no other lover
D                   D7      G      Am  G/B
  Something in the way she woos me

[2ª Parte]

#5t1##5t2#E|----------------------------------------------------|
B|----------------------------------------------------|
G|--7-7-7/9~---------7/9~\----------------------------|
D|----------------------------------------------------|
A|----------------------------------------------------|
E|----------------------------------------------------|#/5t2##/5t1#

#6t1##6t2#E|----------------------------------------------------|
B|----------------------------------------------------|
G|--5h7p5~-----------7/9--7\5~\-----------------------|
D|----------------------------------------------------|
A|----------------------------------------------------|
E|----------------------------------------------------|#/6t2##/6t1#

   Am                         Am7M
I don't want to leave her now
       Am7                D7(9)
 You know I believe, and how

( F  Eb  G/D  C )

[1ª Parte]
  C                           C7M
 Somewhere in her smile she knows
C7                            F    C/E
  That I don't need no other lover
  D                 D7         G      Am  G/B
 Something in her style that shows me

[2ª Parte]

   Am                         Am7M
I don't want to leave her now
       Am7                D7(9)
 You know I believe, and how

( F  Eb  G/D  A )

#7t1#    F           Eb  G/D C
#7t2#E|----------------------------------------------------|
B|-10-b13r12p10-11--12--12/14~------------------------|
G|----------------------------------------------------|
D|----------------------------------------------------|
A|----------------------------------------------------|
E|----------------------------------------------------|#/7t2##/7t1#

A/E               A7M/E            F#m  F#m/E
   You're asking me will my love grow
             D   G         A5   Ab5  G5  Gb5  F5  E5
   I don't know, I don't know

A/E            A7M/E              F#m   F#m/E
   You stick around, now it may show
             D   G         C
   I don't know, I don't know

[Solo] C  C7M  C7  F
       D  D7  G  A  G/B
       Am  Am7M  Am7  D7(9)

#8t1#   C           C7M
#8t2#E|----------------------------------------------------|
B|--------8-------------8b10-b10r8--------------------|
G|----7h9---9~------7h9------------9~-----------------|
D|----------------------------------------------------|
A|----------------------------------------------------|
E|----------------------------------------------------|#/8t2##/8t1#
#9t1#   C7                            F
#9t2#E|------------------------------b12r10-8--------------|
B|-----8/10-8-8/11-13-13-b15r13----------10~----------|
G|-7h9------------------------------------------------|
D|----------------------------------------------------|
A|----------------------------------------------------|
E|----------------------------------------------------|#/9t2##/9t1#
#10t1#                C/E       D
#10t2#E|----------------------------------------------------|
B|-----13-13\-----8-8-\-------------------------------|
G|-/14---------/9-------------------------------------|
D|------------------------/7~-------------------------|
A|----------------------------------------------------|
E|----------------------------------------------------|#/10t2##/10t1#
#11t1#         D7
#11t2#E|----------------------------------------------------|
B|---------7-7-b12r10-b12r10-b12r10-------------------|
G|-----6/7--------------------------------------------|
D|-9\7------------------------------------------------|
A|----------------------------------------------------|
E|----------------------------------------------------|#/11t2##/11t1#
#12t1#          G     Am       G/B
#12t2#E|-----------10----------10/12-11-10------------------|
B|-b12r10\8--12-12p11\10------------------------------|
G|-----------12---------------------------------------|
D|----------------------------------------------------|
A|----------------------------------------------------|
E|----------------------------------------------------|#/12t2##/12t1#
#13t1#   Am              Am7M
#13t2#E|----------------------------------------------------|
B|----------------------------------------------------|
G|-7b9r7b9r7b9r7p5~--7b9r7b9r7b9r7b9r7p5--------------|
D|----------------------------------------------------|
A|----------------------------------------------------|
E|----------------------------------------------------|#/13t2##/13t1#
#14t1#   Am7              D7(9)
#14t2#E|------------------10/12-10-8/10-8-------------------|
B|----------------------------------10----------------|
G|-7b9r7b9r7p5/9-12-----------------------------------|
D|----------------------------------------------------|
A|----------------------------------------------------|
E|----------------------------------------------------|#/14t2##/14t1#
#15t1#  F             Eb G/D   C
#15t2#E|----------------------------------------------------|
B|-10-b13r12p10-11-12--/13~---------------------------|
G|----------------------------------------------------|
D|----------------------------------------------------|
A|----------------------------------------------------|
E|----------------------------------------------------|#/15t2##/15t1#

( F  Eb  G/D  C )

 C                         C7M
Something in the way she knows
C7                           F           C/E
   And all I have to do is think of her
 D                 D7         G    Am   G/B
Something in the things she shows me

[2ª Parte]

   Am                        Am7M
I don't want to leave her now
      Am7                D7(9)
You know I believe, and how

( F  Eb  G/D  A )

[Final] F  Eb  G/D  C

#16t1#    F           Eb     G/D   C
#16t2#E|------------------------------------------15-14-----|
B|-10-b13r12p10| —11-----12---12/14~---14--14---------|
G|----------------------------------------------------|
D|----------------------------------------------------|
A|----------------------------------------------------|
E|----------------------------------------------------|#/16t2##/16t1#

#17t1#   F             Eb G/D C
#17t2#E|----------------------------------------------------|
B|-10-b13r12p10-11-12--13-----------------------------|
G|---------------------12-----------------------------|
D|---------------------14-----------------------------|
A|----------------------------------------------------|
E|----------------------------------------------------|#/17t2##/17t1#

Composição: George HarrisonColaboração e revisão: Gabriel SilvaGetúlio VasconcelosJoel GuimarãesKenji Yonaminee mais 3
Videoaula Something (aula de guitarra)