busca

What You're Doing

The Beatles

Tom: D
                (Riff1)
E|-------7----5-------------------------|
B|-----7---------7----5-5----5----7-----|
G|-7----------------------7----------7--|
D|--------------------------------------|
A|--------------------------------------|
E|--------------------------------------|


(Repita Riff 1)



D                   G       D           G
Look   what you're doing   I'm feeling blue and lonely would it
Bm               G                              D     G
be too much too ask of you What You're Doing to me


D             G        D              G
You   got me running  and there's no fun in it why should it
Bm               G                              D     G
be too much too ask of you What You're Doing to me



G                  Bm            G                     Bm
I've been waiting here for you  wondering what you're gonna do
E                                       A
should you need a love that's true it's me



D                 G      D           G
Please stop your lying  you got me crying girl why should it
Bm               G                              D     G
be too much too ask of you What You're Doing to me


Solo:

    D                                 G7
E|-5-----------------------5-------|-9-------7----------------------
B|-7-----------------------7-------|-8-------6----------------------
G|---------------------------------|--------------------------------
D|---------------------------------|--------------------------------
A|---------------------------------|--------------------------------
E|---------------------------------|--------------------------------

E|-5---------------------------5---|-9---9---7---7------------------
B|-7---------------------------7---|-8---8---6---6------------------
G|---------------------------------|--------------------------------
D|---------------------------------|--------------------------------
A|---------------------------------|--------------------------------
E|---------------------------------|--------------------------------

E|-2-----------------------------2-|------7----------7--------7-----
B|-----3-------------------3-------|-----------8-------8------------
G|-------------4-------------------|--7-------------------7---------
D|---------------------------------|--------------------------------
A|---------------------------------|--------------------------------
E|---------------------------------|--------------------------------



G                  Bm            G                     Bm
I've been waiting here for you  wondering what you're gonna do
E                                       A
should you need a love that's true it's me


D                 G      D           G
Please stop your lying  you got me crying girl why should it
Bm               G                              D
be too much too ask of you What You're Doing to me


             G        D                G       D
What you're doing to me  What you're doing to me
G            D                         A

Termina com (Riff1)

Clipes