Words Of Love

The Beatles

A
123
X02220
D
123
XX0232
E
123
022100
Tom: G
(intro)  A   D   E   A   D   E

#1t1##1t2#E|-5--5-0----0------2------0-----0-| 
B|-5--5-2/5--5--------3------2-0---| 
G|---------------2-------2---------| (3x)
D|---------------------------------| 
A|---------------------------------| 
E|---------------------------------| #/1t2##/1t1#

#2t1##2t2#E|-5---5--5-0--0----2-----0-------|
B|-5---5--5-5--5------3-----2-0---|
G|----------------2-----2-------1-|
D|--------------------------------|
A|--------------------------------|
E|--------------------------------|#/2t2##/2t1#

 A              D   E              A    D
Hold me close and tell me how you feel
 E               A   D      E
Tell me love is real  um  um
 A   D    E
Um   um

 A               D  E               A    D
Words of love you whisper soft and true
 E                  A    D   E
Darling I love you real  um  um

(solo)
   A    D    E
   Um   um

( A   D  E   A   D   E ) (4x)

 A                  D     E
Let me hear you say  the words I long to
 A  D         E
Hear Darling when you're
 A   D         E
Near  um  um
 A    D         E
Um   um

 A                D
Words of love you
 E                A   D
Whisper soft and true
 E                  A    D       E
Darling I love you real   um  um
 A   D   E
Um  um

(coda)
   A   D    E
   Um   um
   A    D   E
   Um   Ah
   A   D    E
   Ah  Ah

#3t1#(melhores opções de acordes)
 A             D         E
#3t2#E|-x-          E-x-       E-x-
B|-5-          B-7-       B-9-
G|-6-          G-7-       G-9-
D|-7-          D-7-       D-9-
A|-x-          A-x-       A-x-
E|-x-          E-x-       E-x-sica#/3t2##/3t1#
Composição: Buddy HollyColaboração e revisão: Enrique Bauer