Yesterday

The Beatles

A
123
X02220
Am
123
X02210
B7
1234
X21202
B7/F#
1234
XX4445
C
123
X32010
D
123
XX0232
D7
123
XX0212
Em
12
022000
Em/D
123
XX0453
F#m
34
244222
G
123
320003
G/F#
1234
XX4433
Tom: G
[Intro]

#1t1#   G
#1t2#E|---3-3-3---3-3-3---3-3-3---3-3-3----------|
B|---3-3-3---3-3-3---3-3-3---3-3-3----------|
G|---0-0-0---0-0-0---0-0-0---0-0-0----------|
D|------------------------------------------|
A|------------------------------------------|
E|-3-------3-------3-------3----------------|#/1t2##/1t1#

[1ª Parte]

#2t1#   G                F#m     B7       Em
#2t2#E|---3-3-3---3-3------2-2-2---2-2-2----0-0-0|
B|---3-3-3---3-3------2-2-2---0-0-0----0-0-0|
G|---0-0-0---0-0------2-2-2---2-2-2----0-0-0|
D|-----------------------------------2------|
A|--------------------------2---------------|
E|-3-------3------0-2-----------------------|#/2t2##/2t1#

#3t1#   Em  Em/D C        D7       G          G/F#
#3t2#E|---0---0----0-0-0----2-2-2----3-3-3--3---3|
B|---0---0----1-1-1----1-1-1----3-3-3--3---3|
G|---0---0----0-0-0----2-2-2----0-0-0--0---0|
D|-2---0-------------0----------------------|
A|----------3-------------------------------|
E|----------------------------3-------3--2--|#/3t2##/3t1#

#4t1#    Em     A       C  G
#4t2#E|---0---------------3-3--3-3-3-------------|
B|---0-----2-2-2--1--3-3--3-3-3-------------|
G|---0-----2-2-2--0--0-0--0-0-0-------------|
D|---------2-2-2--2-------------------------|
A|-------0--------3-------------------------|
E|-0---0-------------3-3--------------------|#/4t2##/4t1#

          F#m
Yesterday
         B7                Em      Em/D
All my troubles seemed so far away
C        D7                      G           G/F#
 Now it looks as though they're here to stay
    Em   A        C  G
Oh, I believe in yesterday

          F#m
Suddenly 
         B7              Em       Em/D
I'm not half the man I used to be
C            D7           G       G/F#
 There's a shadow hanging over me 
     Em    A        C  G
Oh, yesterday came suddenly

[2ª Parte]

#5t1#    B7/F#   B7       pass 1        Am
#5t2#E|---2-2-2---2-2-2--0---2---3-2-0---0-0-0---|
B|---0-0-0---0-0-0----0---0---------1-1-1---|
G|---2-2-2---2-2-2------------------2-2-2---|
D|------------------2---0-------------------|
A|---------2----------------3-2---0---------|
E|-2----------------------------------------|#/5t2##/5t1#

#6t1#    D        G
#6t2#E|---2-2-2----3-3-3---3-3-3-----------------|
B|---3-3-3----3-3-3---3-3-3-----------------|
G|---2-2-2----0-0-0---0-0-0-----------------|
D|-0----------------------------------------|
A|------------------------------------------|
E|----------3-------3-----------------------|#/6t2##/6t1#

#7t1#   B7/F#    B7      (pass 1)        Am
#7t2#E|---2-2-2---2-2-2--0---2---3-2-0---0-0-0---|
B|---0-0-0---0-0-0----0---0---------1-1-1---|
G|---2-2-2---2-2-2------------------2-2-2---|
D|------------------2---0-------------------|
A|---------2----------------3-2---0---------|
E|-2----------------------------------------|#/7t2##/7t1#

#8t1#    D     (pass 2)
#8t2#E|---2-2-2----------------------------------|
B|---3-3-3------3---1---0-------------------|
G|---2-2-2----0---0---0---0-----------------|
D|-0----------------------------------------|
A|------------------------------------------|
E|----------3-------------------------------|#/8t2##/8t1#

 B7/F#  B7 Em     C          Am
Why    she had to go I don't know
     D        G
She wouldn't say
B7/F#  B7   Em       C            Am
I     said something wrong now I long
     D     G
For yesterday

[3ª Parte]
          F#m
Yesterday
          B7           Em         Em/D
Love was such an easy game to play
 C      D7             G       G/F#
Now I need a place to hide away
    Em   A        C      G
Oh, I believe in yesterday

[Refrão]

 B7/F#  B7 Em     C          Am
Why    she had to go I don't know
     D        G
She wouldn't say
B7/F#  B7   Em       C            Am
I     said something wrong now I long
     D     G
For yesterday

[Final]

#9t1##9t2#E|-3-3-3-3-3-3---3--------------------------|
B|-3-3-2-2-1-1h3-1h3------------------------|
G|------------------------------------------|
D|------------------------------------------|
A|------------------------------------------|
E|------------------------------------------|#/9t2##/9t1#
Composição: Colaboração e revisão: Gabriel SilvaArtur menezesRafael RussoThiago Almeidae mais 10
Videoaula Yesterday (aula de violão completa)