busca

You've Really Got A Hold On Me

The Beatles

Tom: A
Intro:

E|---------------------------------------------------------------|
B|---------------------------------------------------------------|
G|---------------------------------------------------------------|
D|---------------------------------------------------------------|
A|--------0-2-0---0-----0----4----4-2-0-2-------4----4-2-0-2-----|
E|--0-0-2-------2-------------------------2------------------2---|

( A F#m A F#m )

A
I don't like you

But I love you
F#m
Seems that I'm always thinking of you
A
Oh, oh, oh
           D
You treat me badly
            Bm
I love you madly

       E7           A
You've really got a hold on me

(You've really got a hold on me)
                 F#m
You really got a hold on me, baby

(You've really got a hold on me)

A
I don't want you,

but I need you
              F#m
Don't want to kiss you

but I need to
A
Oh, oh, oh
             D
you do me wrong now
           Bm
my love is strong now
    E7           A
You really got a hold on me
(you really got a hold on me)
                 F#m
You really got a hold on me, baby
(you really got a hold on me)

A                    D
I love you and all I want you to do
        A        A        A        E7
is just hold me, hold me, hold me, hold me
E|-----------------------------------------------------|
B|-----------------------------------------------------|
G|-----------------------------------------------------|
D|---------------------2----4----2---------4----2----2-|
A|--------0-2-0---0----2----4----2----4----4----2----0-|
E|--0-0-2-------2--------------------------------------|

A F#m F#m E A
Tighter

A F#m F#m E A
Tighter.

A
I want to leave you

don't want to stay here
F#m
Don't want to spend

another day here
A                     D
Oh, oh, oh, I want to split now
             Bm
I just can't quit now
    E7           A
You really got a hold on me
(you really got a hold on me)
                 F#m
You really got a hold on me, baby
(you really got a hold on me)

A                    D
I love you and all I want you to do
        A
is just hold me (please)
A
hold me (squeeze),
A        E7
hold me, hold me
E|-------------------|
B|-------------------|
G|-------------------|
D|-------------------|
A|--------0-2-0---0--|
E|--0-0-2-------2----|

A
You really got a hold on me
(you really got a hold on me)
    F#m
You really got a hold on me
(you really got a hold on me)
E|----------------0--|
B|----------------2--|
G|----------------2--|
D|----------------2--|
A|-0-----0----0---0--|
E|--2-0---2-0--------|

Clipes