busca

Hotel California

Eagles

Tom: D
[Intro]

     Bm9
E|-(9)------------------------------------------|
B|-(7)-----------------5-7-7/8\7-5/7~~~~--------|
G|-(7)-4-4h6p4p3-4-6-7--------------------------|
D|-(7)------------------------------------------|
A|-(9)------------------------------------------|
E|-(7)------------------------------------------|

     A/B
E|-(-x)-----------------------------------------|
B|-(10)-------3-2-------------------------------|
G|-(-9)--2-4--------2-2h4-2---------------------|
D|-(11)-----------4---------4-2p0h2-------------|
A|-(12)-----------------------------------------|
E|-(-9)-----------------------------------------|

     Em
E|-(7)--------0------0------0------0------------|
B|-(8)------0------0------0------0--------------|
G|-(9)----0------2------4------7----------------|
D|-(9)--2------4------5------9------------------|
A|-(X)------------------------------------------|
E|-(X)------------------------------------------|

                   F#7
E|---7p0---10p0-|-----7-6-7-9-10-9-10-12/14-(2)-|
B|--8-----8-----|---8-----------------------(2)-|
G|-9-----9------|-9-------------------------(3)-|
D|--------------|---------------(2)-------------|
A|--------------|-------------(4)---------------|
E|--------------|-----------(2)-----------------|


     Bm9
E|-(9)----2h3p2---2-2---2-----------------------|
B|-(7)----------5-----5---3---5p3---3-----------|
G|-(7)--4-------------------------4---2/4-------|
D|-(7)------------------------------------------|
A|-(9)------------------------------------------|
E|-(7)------------------------------------------|

    A/B
E|-(-x)-----------------------------------------|
B|-(10)------3p2---2--2-------------------------|
G|-(-9)--2-4-----4------2--4--------------------|
D|-(11)-----------------------------------------|
A|-(12)-----------------------------------------|
E|-(-9)-----------------------------------------|

E|------------------7-9-10-9-10-12\-------------|
B|-----5-8-7-8p7p5------------------------------|
G|-6-7------------------------------------------|
D|----------------------------------------------|
A|----------------------------------------------|
E|----------------------------------------------|

     Em
E|---------0--------0--------0------------------|
B|-------0--------0--------0--------------------|
G|-----0--------2--------4----------------------|
D|--2--------4--------5-------------------------|
A|----------------------------------------------|
E|----------------------------------------------|


E|-------0-7p0---10-12-10-----------------------|
B|-----0-------0----------12--------------------|
G|---7------------------------------------------|
D|-9--------------------------------------------|
A|----------------------------------------------|
E|----------------------------------------------|

     F#7
E|-9-9h10p9p7-7h9p7/6---------------------------|
B|-------------------8-7-7-7-8-7-5-7------------|
G|-----------------------------------7-6--------|
D|---------------------------------------9-8----|
A|----------------------------------------------|
E|----------------------------------------------|

(capo 7ª casa)
E|-----------0-----|------2-----|------0--------|
B|-------0---------|----0----0--|----3-----3----|
G|-----0---0---0-2-|--2----2----|--2-----2---2--|
D|---2-------------|1-----------|0--------------|
A|-----------------|------------|---------------|
E|-0---------------|------------|---------------|

E|----------0-|----------0----------------------|
B|------0-----|------1--------------------------|
G|----0---0---|----0-----------0----------------|
D|--2---------|--2-----2---0h2------------------|
A|4-----------|3--------------------------------|
E|------------|---------------------------------|

E|-------3------|------------0---|-----------2--|
B|-----0-----0--|--------1-------|-------0------|
G|---0-----0----|------0---0-----|---0-2---2----|
D|--------------|----2-----------|--------------|
A|-2------------|--0-------------|-2------------|
E|-------------3|--------------0-|--------------|


     B                    F#7
E|-----------7-------|---------9----------------|
B|-------7-----------|------7-------7-----------|
G|-----7---7-----7-9-|----9------9--------------|
D|---9---------------|--8-----------------------|
A|-------------------|--------------------------|
E|-7-----------------|--------------------------|

    A                   E
E|---------7--------|--------------7------------|
B|------10----10----|---------7-----------------|
G|---9-------9---9--|-------7---7---------------|
D|-7----------------|----9----------------------|
A|------------------|-11------------------------|
E|------------------|---------------------------|

     G                     D
E|--------------7-----|--------10---------------|
B|----------8---------|------10-----10----------|
G|--------7----------7|----7-----7--------------|
D|-----9------8--7h9--|-------------------------|
A|-10-----------------|-9-----------------------|
E|--------------------|-------------------------|

    E                        F#
E|------------7-----------|-----------9---------|
B|-------8----------------|-------7-------------|
G|-----7------------------|---7-9---9-----------|
D|---9-----9--------------|---------------------|
A|-7----------------------|-9-------------------|
E|------------------------|---------------------|


     Bm         F#         A     E
E|-------|------------|-------|-----------------|
B|-------|------------|-------|-----------------|
G|-------|------------|-------|-----------------|
D|---2-4-|-2-0h2p0----|-------|-----------------|
A|-5-----|---------4--|-4-5-7-|-2---------------|
E|-------|------------|-------|-----------------|

     G          D       Em         F#
E|---------|---------|-------|------------------|
B|---------|---------|-------|------------------|
G|---------|---------|-------|------------------|
D|---------|---2/4---|-2-4-5-|-4h5p4p2-4--------|
A|-2-4-5---|-4-----5-|-------|------------------|
E|-------5-|---------|-------|------------------|

Bm                       F#
On a dark desert highway,  cool wind in my hair
A                     E
Warm smell of colitas,  rising up through the air
G                        D
Up ahead in the distance,  I saw a shimmering light
Em
My head grew heavy and my sight grew dim
F#
  I had to stop for the night

Verso 2:
Bm                             F#
There she stood in the doorway;  I heard the mission bell
A                                          E
And I was thinking to myself this could be heaven or this could be hell
G                        D
Then she lit up a candle, and she showed me the way
Em                                  F#
There were voices down the corridor,  I thought I heard them say

(violão 1)

(verso 2)
E|-----------|-----------|----------------------|
B|---5-5h7---|---3-3h5---|---2-2h3--------------|
G|-7~6-6---6-|-6~4-4---4-|-4~2-2---2------------|
D|-9~------8-|-7~------6-|-5~------4------------|
A|-----------|-----------|----------------------|
E|-----------|-----------|----------------------|


E|-----2-----------0----------------------------|
B|-----3-----3-----0----------------------------|
G|---2-----2-2---2------------------------------|
D|-0-----0-----0---2----------------------------|
A|----------------------------------------------|
E|----------------------------------------------|

[Pré-Refrão]

E|----------------------------------------------|
B|----------------------------------------------|
G|----------------------------------------------|
D|---------5------------------------------------|
A|---1-2-4-5------------------------------------|
E|-2--------------------------------------------|

 G                        D
Welcome to the Hotel California

E|----------------------------------------------|
B|-3-3--3--3------------------------------------|
G|-2-2--4--2-/6-4-2-----------------------------|
D|-----------/7-5-4-----------------------------|
A|----------------------------------------------|
E|----------------------------------------------|

       F#                                       Bm
Such a lovely place (sucha lovely place) such a lovely face

E|----------------------------------------------|
B|----------------------------------------------|
G|----------------------------------------------|
D|---------2-4-5--------------------------------|
A|2--4--5---------------------------------------|
E|----------------------------------------------|

 G                               D
Plenty of room at the Hotel California

E|-9--9--9-\7-7\5-5\----------------------------|
B|-10-10-10\8-8\7-7\----------------------------|
G|----------------------------------------------|
D|----------------------------------------------|
A|----------------------------------------------|
E|----------------------------------------------|

       Em                                          F#
Any time of year (any time of the year) you can find it here


G                              D  F#                                    Bm7
Welcome to the Hotel California...Such a lovely place, such a lovely face
E|----------0-------|-------3-------------------|
B|------1-----------|-----0-----0---------------|
G|----0-----------0-|---0-----0-----------------|
D|--2-----2---0h2---|---------------------------|
A|3-----------------|-2-------------------------|
E|------------------|--------------3------------|

E|------------2--|-----------0------------------|
B|--------0------|-------0----------------------|
G|------2---2----|-----0---0---0-2--------------|
D|----1----------|---2--------------------------|
A|--2----------0-|------------------------------|
E|---------------|-0----------------------------|

G                        D              Em                           F#
Plenty of room at the Hotel California...Any time of year you can find it here

E|----------0-------|-------3-------------------|
B|------1-----------|-----0-----0---------------|
G|----0-----------0-|---0-----0-----------------|
D|--2-----2---0h2---|---------------------------|
A|3-----------------|-2-------------------------|
E|------------------|--------------3------------|

E|------------0--|------------2-----------------|
B|--------1------|-------0----------------------|
G|------0---0----|---0-2----2-------------------|
D|----2----------|------------------------------|
A|--0------------|-2----------------------------|
E|-------------0-|------------------------------|

[Verso 3]

Bm                          F#
Her mind is Tiffany twisted,  she got the Mercedes bends
A                                   E
She got a lot of pretty, pretty boys  that she calls friends
G                                 D
How they dance in the courtyard, sweet summer sweat
Em                     F#
Some dance to remember,  some dance to forget

[Verso 4]

E|---------------------------------------------|
B|---5-5h7---5-5h7---3-3h5---2-2h3---2-2h3-----|
G|-7~6-6---6-6-6---6-4-4---4-2-2---4-2-2---2---|
D|-9~------8-------7-------6-------5-------4---|
A|---------------------------------------------|
E|---------------------------------------------|

E|-----2--------------0------------------------|
B|-----3-----3-----0---------------------------|
G|---2-----2-2---2-----------------------------|
D|-0-----0-----0---2---------------------------|
A|---------------------------------------------|
E|---------------------------------------------|

Bm                         F#
So I called up the captain;   "Please bring me my wine." He said:
A                                     E
"We haven't had that spirit here since  nineteen sixty-nine"
G                                        D
And still those voices are calling from far away
Em                                     F#
Wake you up in the middle of the night,   just to hear them say

[Refrão]

E|---------------------------------------------|
B|---------------------------------------------|
G|---------------------------------------------|
D|---------5-----------------------------------|
A|---1-2-4-5-----------------------------------|
E|-2-------------------------------------------|

G                         D
Welcome to the Hotel California

E|-9--9-\7-7-7-7\5-5-5\------------------------|
B|-10-10\8-8-8-8\7-7-7\------------------------|
G|---------------------------------------------|
D|---------------------------------------------|
A|---------------------------------------------|
E|---------------------------------------------|

F#                                                Bm
Such a lovely place, (such a lovely place) such a lovely face

E|---------------------------------------------|
B|---------------------------------------------|
G|---------------------------------------------|
D|---------2-4-5-------------------------------|
A|2--4--5--------------------------------------|
E|---------------------------------------------|

G                                   D
They livin' it up at the Hotel California

E|-7-7-7\5-5\2-2-------------------------------|
B|-8-8-8\7-7\3-3-------------------------------|
G|---------------------------------------------|
D|---------------------------------------------|
A|---------------------------------------------|
E|---------------------------------------------|

Em                                                 F#
What a nice surprise, (what a nice surprise) give your alibis
G                              D  Em                                      F#
Welcome to the Hotel California...Such a lovely place , such a lovely face

E|----------0-------|-------3------------------|
B|------1-----------|-----0-----0--------------|
G|----0-----------0-|---0-----0----------------|
D|--2-----2---0h2---|--------------------------|
A|3-----------------|-2------------------------|
E|------------------|--------------3-----------|

E|------------0--|-----------0-----------------|
B|--------1------|-------0---------------------|
G|------0---0----|-----0---0---0-2-------------|
D|----2----------|---2-------------------------|
A|--0------------|-----------------------------|
E|-------------0-|-0---------------------------|

   G                                   D        Em                     F#
They livin' it up at the Hotel California...What a nice surprise  give your alibis

E|----------0-------|-------3------------------|
B|------1-----------|-----0-----0--------------|
G|----0-----------0-|---0-----0----------------|
D|--2-----2---0h2---|--------------------------|
A|3-----------------|-2------------------------|
E|------------------|--------------3-----------|


E|------------0--|-----------------------------|
B|--------1------|-----------------------------|
G|------0---0----|-----------------------------|
D|----2----------|-----------------------------|
A|--0------------|-2---------------------------|
E|-------------0-|-----------------------------|

[Verso 5]

Mirrors on the ceiling, the pink champagne on ice
And she said "We are all just prisoners here, of our own device"
And in the master's chambers, they gathered for the feast
They stab it with their steely knives, but they just can't kill the beast

[Verso 6]

Bm                    F#
Last thing I remember,   I was running for the door
A                                      E
I had to find the passage back to the place I was before
G                                 D
"Relax" said the nightman, "We are  programmed to receive"
Em                                  F#
"You can check out anytime you like,   but you can never leave"
Solo 1:
    Bm                     F#
E|-------|---------------------|-7-5-3-2--------|
B|-------|---------------------|----------------|
G|-----6-|9--9-9-9-9\7-6-9-7-6-|-7-6-4-3--------|
D|-8-9---|---------------------|----------------|
A|-------|---------------------|----------------|
E|-------|---------------------|----------------|

      A
E|-9-10-12-12-12-12~~~12-10-9-------------------|
B|----------------------------12----------------|
G|----------------------------------------------|
D|----------------------------------------------|
A|----------------------------------------------|
E|----------------------------------------------|

            E
E|-10-9-----------------------------------------|
B|------12-10-9---------------------------------|
G|---------------9------------------------------|
D|-----------------9----------------------------|
A|-------------------9h11-----------------------|
E|----------------------------------------------|

          G                            D
E|----------------------------------------------|
B|----------------------------------------------|
G|----------------------------2/4-2-----4-------|
D|--------------2----4-2--5-4--------12---4-----|
A|-----0-2--5-4---5-----------------------------|
E|-2-3------------------------------------------|

       Em                       F#7
E|-0------0------0-------0-|---2----------2-2---|
B|---0------0------0-----0-|-----2----------2---|
G|-----0------0------0---0-|-------3------------|
D|-------2------2------2---|---------4------4---|
A|-------------------------|-----------4--------|
E|-------------------------|-2-----------2------|

[Solo 2]

E|----------------------------------------------|
B|----------------5-7-7h8p7p5-7---5-7-7h8p7p5---|
G|4-4h6p4p3-4-6-7---------------7---------------|
D|----------------------------------------------|
A|----------------------------------------------|
E|----------------------------------------------|

E|----------------------------------------------|
B|-5h7p5\3-3h5p3\2------------------------------|
G|-----------------4----------------------------|
D|----------------------------------------------|
A|----------------------------------------------|
E|----------------------------------------------|

        F#
E|-------7-9-7----14----------------------------|
B|---2-5-------11-------------------------------|
G|-3--------------------------------------------|
D|-----------------------12\-7------------------|
A|----------------------------------------------|
E|----------------------------------------------|

      A
E|----------------------------------------------|
B|--7-7-7-5-5-5---------------------------------|
G|--------------7-7-6---------------------------|
D|--------------------9-7-6---------------------|
A|----------------------------------------------|
E|----------------------------------------------|

        E
E|------------------------0---------------------|
B|----------------------------------------------|
G|-7-7h9p7p6--6h7p6p4---------------------------|
D|--------------------7-6-----------------------|
A|----------------------------------------------|
E|----------------------------------------------|

             G
E|--------------------------------------3-------|
B|----------------------------------3-5---------|
G|------------------2-4-4h6p4p3-4-6-------------|
D|--2-4--5h7p5p4-5------------------------------|
A|----------------------------------------------|
E|----------------------------------------------|

         D
E|-/5-5-5-5/7-5-3/5-|---------------------------|
B|-/7-7-7-7/8-7-5/7-|-----------------0h2h3-----|
G|------------------|---------0h1h2h3-----------|
D|------------------|-0h2h3h4-------------------|
A|------------------|---------------------------|
E|------------------|---------------------------|

   Em
E|-------3p0---7p3-0-10p7---12p10---------------|
B|-5p0-------0------------8-------12\-----------|
G|-----0----------------------------------------|
D|----------------------------------------------|
A|----------------------------------------------|
E|----------------------------------------------|

        F#
E|-2-2h3p2p0---0h2-0-------------------0--------|
B|-----------3-------3-2h3p2p0-2-3p2-3----------|
G|----------------------------------------------|
D|----------------------------------------------|
A|----------------------------------------------|
E|----------------------------------------------|

[Final]

(violão 2)

E|-7-6-7-9--------------------------------------|
B|----------------------------------------------|
G|----------------------------------------------|
D|----------------------------------------------|
A|----------------------------------------------|
E|----------------------------------------------|

(violão 1)

E|-------0--------------------------------------|
B|-3p2-3----------------------------------------|
G|----------------------------------------------|
D|----------------------------------------------|
A|----------------------------------------------|
E|----------------------------------------------|

[Solo]

(violão 1)

        Bm
E|----------------------------------------------|
B|-7p3----7p3----7p3----7p3----7p3--------------|
G|------4------4------4------4------4-----------|
D|----------------------------------------------|
A|----------------------------------------------|
E|----------------------------------------------|

      F#
E|-----------------/6---------------------------|
B|-5p2---5p2---5p2------------------------------|
G|-----3-----3----------------------------------|
D|----------------------------------------------|
A|----------------------------------------------|
E|----------------------------------------------|

(violão 2)

E|-10p7---10p7---10p7---10p7---10p7-------------|
B|------7------7------7------7------7-----------|
G|----------------------------------------------|
D|----------------------------------------------|
A|----------------------------------------------|
E|----------------------------------------------|

E|-9p6---9p6---9p6/14---------------------------|
B|-----7-----7----------------------------------|
G|----------------------------------------------|
D|----------------------------------------------|
A|----------------------------------------------|
E|----------------------------------------------|

(violão 1)

        A
E|----------------------------------------------|
B|-5p2---5p2---5p2---5p2---5p2------------------|
G|-----2-----2-----2-----2-----2----------------|
D|----------------------------------------------|
A|----------------------------------------------|
E|----------------------------------------------|

    E
E|-----------------/4---------------------------|
B|-3p0---3p0---3p0------------------------------|
G|-----1-----1----------------------------------|
D|----------------------------------------------|
A|----------------------------------------------|
E|----------------------------------------------|


(violão 2)
E|-9p5---9p5---9p5---9p5---9p5------------------|
B|-----5-----5-----5-----5-----5----------------|
G|----------------------------------------------|
D|----------------------------------------------|
A|----------------------------------------------|
E|----------------------------------------------|

E|-7p4---7p4---7p4/12---------------------------|
B|-----5-----5----------------------------------|
G|----------------------------------------------|
D|----------------------------------------------|
A|----------------------------------------------|
E|----------------------------------------------|

(violão 1)

        G
E|----------------------------------------------|
B|-3p0---3p0---3p0---3p0---3p0------------------|
G|----------------------------------------------|
D|-----5-----5-----5-----5-----5----------------|
A|----------------------------------------------|
E|----------------------------------------------|

E|----------------------------------------------|
B|3-----3-----3---/7----------------------------|
G|---2-----2-----2------------------------------|
D|-----4-----4----------------------------------|
A|----------------------------------------------|
E|----------------------------------------------|

(violão 2)

E|-7p3---7p3---7p3---7p3---7p3------------------|
B|-----3-----3-----3-----3-----3----------------|
G|----------------------------------------------|
D|----------------------------------------------|
A|----------------------------------------------|
E|----------------------------------------------|

E|-5p2---5p2---5-/-10---------------------------|
B|-----3-----3----------------------------------|
G|----------------------------------------------|
D|----------------------------------------------|
A|----------------------------------------------|
E|----------------------------------------------|

(violão 1)

    Bm
E|----------------------------------------------|
B|----------------------------------------------|
G|-4p0---4p0---4p0---4p0---4p0---3h4------------|
D|-----2-----2-----2-----2-----2----------------|
A|----------------------------------------------|
E|----------------------------------------------|

      F#
E|-------------------2-------------|-2----------|
B|-2-----3p0---5p2-----3---3p2-3h5-|-3----------|
G|---3-------------3-----4---------|-4----------|
D|-----4-----4---------------------|-4----------|
A|----------------------------------------------|
E|----------------------------------------------|

(violão 2)

E|-3p0---3p0---3p0---3p0---3p0------------------|
B|-----0-----0-----0-----0-----0-2h3------------|
G|----------------------------------------------|
D|----------------------------------------------|
A|----------------------------------------------|
E|----------------------------------------------|

E|-------2----6----7--------------|-7-----------|
B|-5p2-----3----7----7------------|-7-----------|
G|-----3-----4----9----7-9p7-9/11-|-7-----------|
D|--------------------------------|-9-----------|
A|--------------------------------|-------------|
E|--------------------------------|-------------|

Clipes

Cifra Club Pro

Aproveite o Cifra Club com benefícios exclusivos e sem anúncios
7 dias grátis
Cifra Club Pro
Aproveite o Cifra Club com benefícios exclusivos e sem anúncios
7 dias grátis