busca

Hotel California

Eagles

Tom: D (forma dos acordes no tom de G) Capotraste na 7ª casa
[Intro]

[Intro - Parte 1 de 2]

      Em7(9)   D9/E     Am     B7
E|--2--------0--------0--------------2------|
B|--0--------3--------1------------0-0------|
G|--0--------2--------2----------2---2------|
D|--2--------4--------2--------1-----1------|
A|--2--------5--------0------2-------2------|
E|--0--------0------------------------------|

[Intro - Parte 2 de 2]

      Em7(9)   D9/E     Am     B7
E|--2--------0--------0------2--------------|
B|--0--------3--------1------0--------------|
G|--0--------2--------2------2--------------|
D|--2--------4--------2------1--------------|
A|--2--------5--------0------2--------------|
E|--0--------0------------------------------|

[Dedilhado Intro]

[Intro - Parte 2 de 2: Tab 1]

      Em                B7/D#
E|--------------------------2----2----------|
B|------------0-----------0------0----------|
G|--------0-----0-2-----2-----2--2----------|
D|------2---2---------1----------1----------|
A|----2-------------------------------------|
E|--0---------------------------------------|

[Intro - Parte 2 de 2: Tab 2]

      D5(9)           A7(9)/C#
E|--------0--------------------0------------|
B|------3-----3-----------0----0------------|
G|----2-----2---2-------0---0--0------------|
D|--0-----------------2--------2------------|
A|------------------4----------4------------|
E|------------------------------------------|

[Intro - Parte 2 de 2: Tab 3]

      C                    G/B
E|------------0----------------3----3-------|
B|--------1------------------0------0-------|
G|------0------------0-----0-----0--0-------|
D|----2-----2----0h2----------------0-------|
A|--3--------------------2----------2-------|
E|------------------------------------3-----|

[Intro - Parte 2 de 2: Tab 4]

      Am            B7
E|------------0--------------2--------------|
B|--------1-------------0-------------------|
G|------2---2---------2---2-----------------|
D|----2-------------1-----------------------|
A|--0-------------2-------------------------|
E|------------------------------------------|

[Dedilhado - Primeira Parte]

[Primeira Parte - Parte 1 de 4]

     Em               B7/D#
E|------------------------2----2-2-2---2-2--|
B|-----------0----------0------0-0-0---0-0--|
G|-------0-----0-2----2-----2--2-2-2---2-2--|
D|-----2---2--------1----------1-----1------|
A|---2--------------------------------------|
E|-0----------------------------------------|

[Primeira Parte - Parte 2 de 4]

     D5(9)                  A7(9)/C#
E|-------0----0-0-0---0-0------------0------|
B|-----3------3-3-3---3-3-------0----0------|
G|---2-----2--2-2-2---2-2-----0---0--0------|
D|-0----------0-------------2--------2------|
A|------------------0-----4----------4------|
E|------------------------------------------|

[Primeira Parte - Parte 3 de 4]

     C                     G/B
E|-----------0-0-0-------------3--3-3-3-3-3-|
B|-------1---1-1-1-----------0----0-0-0-0-0-|
G|-----0-----0-0-0-----0---0----0-0-0-0-0-0-|
D|---2-----2-2-----0h2------------0---------|
A|-3---------3-----------2--------2---------|
E|-------------------------------------3----|

[Primeira Parte - Parte 4 de 4]

     Am                    B7
E|-----------0-0-0---0-0------------2-2-2---|
B|-------1---1-1-1---1-1-------0----0-0-0---|
G|-----2---2-2-2-2---2-2-----2---2--2-2-2---|
D|---2-------2-------------1--------1-----1-|
A|-0---------0-----------2----------2-------|
E|-----------------0------------------------|

[Primeira estrofe]

Em
   On a dark desert highway
B7/D#
      Cool wind in my hair
D5(9)
      Warm smell of colitas
A7(9)/C#
         Rising up through the air
C
  Up ahead in the distance
G/B
    I saw a shimmering light
Am
   My head grew heavy and my sight grew dim
B7
   I had to stop for the night

[Segunda estrofe]

Em
   There she stood in the doorway
B7/D#
      I heard the mission bell
D5(9)
      And I was thinking to myself
A7(9)/C#
         This could be Heaven or this could be Hell
C
  Then she lit up a candle
G/B
    And she showed me the way
Am
   There were voices down the corridor
B7
   I thought I heard them say

[Refrão]

[Refrão - Parte 1 de 6]

      C
E|------------0-0-0---0-0-------------------|
B|--------1---1-1-1---1-1-------------------|
G|------0---0-0-0-0---0-0-------------------|
D|----2-------2-----------------------------|
A|--3---------3-----3-----------------------|
E|------------------------------------------|

[Refrão - Parte 2 de 6]

      G                      B7
E|------------3-3-3---3-3------------2------|
B|------------0-0-0---0-0--------0---0------|
G|--------0---0-0-0---0-0------2---2-2------|
D|------0---0-0-----0--------1-------1-1----|
A|----2-------2------------2---------2------|
E|--3---------------------------------------|

[Refrão - Parte 3 de 6]

      Em
E|------------------------------------------|
B|--------0-----0----------0-----0----------|
G|------0-----0----------0-----0------------|
D|----2-----2-----2----2-----2-----2--------|
A|------------------------------------------|
E|--0----------------0----------------------|

[Refrão - Parte 4 de 6]

      C
E|------------0-0-0---0-0-------------------|
B|--------1---1-1-1---1-1-------------------|
G|------0---0-0-0-0---0-0-------------------|
D|----2-------2-----------------------------|
A|--3---------3-----3-----------------------|
E|------------------------------------------|

[Refrão - Parte 5 de 6]

      G
E|------------3-3-3---3-3-------------------|
B|------------0-0-0---0-0-------------------|
G|--------0---0-0-0---0-0-------------------|
D|------0---0-0-----0-----------------------|
A|----2-------2-----------------------------|
E|--3---------------------------------------|

[Refrão - Parte 6 de 6]

     Am                    B7
E|-----------0-0-0---0-0----------2---------|
B|-------1---1-1-1---1-1-------4--0---------|
G|-----2---2-2-2-2---2-2-----2----2---------|
D|---2-------2-------------4------1---------|
A|-0---------0-----0-----2--------2---------|
E|------------------------------------------|

C                           G
  Welcome to the Hotel California
        B7
Such a lovely place
        Em
Such a lovely face
  C                              G
Plenty of room at the Hotel California
     Em
Any time of year
         B7
You can find us here

(Segunda Parte - Repete Dedilhado Primeira Parte)

[Primeira estrofe]

Em
   Her mind is Tiffany-twisted
B7/D#
      She got the Mercedes-Benz
D5(9)
      She got a lot of pretty, pretty boys
A7(9)/C#
         That she calls friends
C
  How they dance in the courtyard
  G/B
Sweet summer sweat
Am
   Some dance to remember
B7
   Some dance to forget

[Segunda estrofe]

Em
   So I called up the Captain
B7/D#
      Please bring me my wine, he said
D5(9)
      We haven't had that spirit here since
A7(9)/C#
         Nineteen sixty-nine
C                                          G/B
  And still those voices are calling from far away
Am
   Wake you up in the middle of the night
B7
   Just to hear them say

[Refrão]

C                           G
  Welcome to the Hotel California
        B7
Such a lovely place
        Em
Such a lovely face
       C                             G
We're livin' it up at the Hotel California
        Am
What a nice surprise
           B7
Bring your alibis

[Terceira Parte]

[Terceira Parte - Parte 1 de 4]

      Em                B7/D#
E|--------------------------2---------------|
B|------------0-----------0-----------------|
G|--------0-----0-2-----2-----2-------------|
D|------2---2---------1----------1----------|
A|----2-------------------------------------|
E|--0---------------------------------------|

[Terceira Parte - Parte 2 de 4]

      D5(9)           A7(9)/C#
E|--------0--------------------0------------|
B|------3-----3-----------0----0------------|
G|----2-----2---2-------0---0--0------------|
D|--0-----------------2--------2------------|
A|------------------4----------4------------|
E|------------------------------------------|

[Terceira Parte - Parte 3 de 4]

     C                  G/B
E|-----------0--------------3---------------|
B|-------1----------------0-----------------|
G|-----0-----------0----0-----0-----0-----0-|
D|---2-----2---0h2----------------0-----0---|
A|-3------------------2---------2-----------|
E|------------------------------------3-----|

[Terceira Parte - Parte 4 de 4]

      Am            B7
E|------------0-------------2---------------|
B|--------1-------------0-------------------|
G|------2---2---------2---2-----------------|
D|----2-------------1-----------------------|
A|--0-------------2-------------------------|
E|------------------------------------------|

[Primeira estrofe]

Mirrors on the ceiling
The pink champagne on ice, and she said
We are all just prisoners here
Of our own device
And in the master's chambers
They gathered for the feast
The stab it with their steely knives
But they just can't kill the beast

(Segunda Estrofe - repete dedilhado primeira parte)

Em
   Last thing I remember, I was
B7/D#
      Running for the door
D5(9)
      I had to find the passage back
         A7(9)/C#
To the place I was before
C
  Relax, said the night man
   G/B
We are programmed to receive
Am
   You can check out any time you like
         B7
But you can never leave

(Repete dedilhado primeira parte até o final da música)

Clipes

Cifra Club Pro

Aproveite o Cifra Club com benefícios exclusivos e sem anúncios
7 dias grátis
Cifra Club Pro
Aproveite o Cifra Club com benefícios exclusivos e sem anúncios
7 dias grátis