busca

A Sermon

The Police

Tom: G
-note that this tab is the only one of it's kind so far-



Tabbed by Kostkaskater 


This is pretty much the whole song on the guitar. 

You play this pretty fast. 

Go double tempo with the speed of the drums and listen to it more to get the speed down. 

Main riff(lead) 
e|--3-3-3-2-2-2-3-3-3-3-2-2-0-0----------------| 
B|--3-3-3-3-3-3-3-3-3-3-3-3-1-1----------------| 
G|---------------------------------------------| >Play this throughout 
D|---------------------------------------------| >the whole song except 
A|---------------------------------------------| >the pauses 
E|---------------------------------------------| 

Chorus-Palm Muted 
e|---------------------------------------------| 
B|---------------------------------------------| 
G|---------------------------------------------| >Go with the 
D|-5-5-5-5--7-7-7-7----------------------------| >beat of the 
A|-5-3-3-3--5-5-5-5----------------------------| >Bass Drum\'s beat 
E|-3-3-3-3--5-5-5-5----------------------------| 


Its sounds just right. I modified it from the last one. 


And I will be doing more since there is nobody doing this band\'s tabs. 

Enjoy! 

Any questions or comments e-mail me on *

Clipes