busca

Every Breath You Take

The Police

Tom: Dm
[Intro] G9  Em9  C5(9)  D5(9)  G9

(Violão 2)

Parte 1 de 9
   G9
E|-----------------------------------------|
B|---------0----------------0--------------|
G|-----2-----2---2------2-----2---2--------|
D|---0---0-----0------0---0-----0----------|
A|-----------------------------------------|
E|-3----------------3----------------------|

Parte 2 de 9

   Em9
E|-----------------------------------------|
B|-----------------------------------------|
G|---------0----------------0--------------|
D|-----4-----4---4------4-----4---4--------|
A|---2---2-----2------2---2-----2----------|
E|-0----------------0----------------------|

Parte 3 de 9

   C5(9)            D5(9)
E|-----------------------------------------|
B|-----3----------------5------------------|
G|---------5-----5----------7-----7--------|
D|---5---5---5--------7---7---7------------|
A|-3-----------3----5-----------5----------|
E|-----------------------------------------|

Parte 4 de 9

   G9
E|-----------------------------------------|
B|---------0----------------0--------------|
G|-----2-----2---2------2-----2---2--------|
D|---0---0-----0------0---0-----0----------|
A|-----------------------------------------|
E|-3----------------3----------------------|

[Primeira Parte]

Parte 5 de 9
   G9
E|-----------------------------------------|
B|---------0----------------0--------------|
G|-----2-----2---2------2-----2---2--------|
D|---0---0-----0------0---0-----0----------|
A|-----------------------------------------|
E|-3----------------3----------------------|

Parte 6 de 9
   Em9
E|-----------------------------------------|
B|-----------------------------------------|
G|---------0----------------0--------------|
D|-----4-----4---4------4-----4---4--------|
A|---2---2-----2------2---2-----2----------|
E|-0----------------0----------------------|

Parte 7 de 9
   C5(9)            D5(9)
E|-----------------------------------------|
B|-----3----------------5------------------|
G|---------5-----5----------7-----7--------|
D|---5---5---5--------7---7---7------------|
A|-3-----------3----5-----------5----------|
E|-----------------------------------------|

Parte 8 de 9
   Em9
E|-----------------------------------------|
B|-----------------------------------------|
G|---------0----------------0--------------|
D|-----4-----4---4------4-----4---4--------|
A|---2---2-----2------2---2-----2----------|
E|-0----------------0----------------------|

Parte 9 de 9
   G9
E|-----------------------------------------|
B|---------0----------------0--------------|
G|-----2-----2---2------2-----2---2--------|
D|---0---0-----0------0---0-----0----------|
A|-----------------------------------------|
E|-3----------------3----------------------|
                      
Every breath you take 
                Em9
Every move you make
                 C5(9)
Every bond you break 
                D5(9)
Every step you take  
                  Em9
I'll be watching you

              G9
Every single day 
                Em9
Every word you say
                 C5(9) 
Every game you play  
                  D5(9)
Every night you stay  
                  G9
I'll be watching you

[Refrão]

Parte 1 de 4
   C5(9)            Bb5(9)
E|-----------------------------------------|
B|-----3----------------1------------------|
G|---------5----------------3--------------|
D|---5---5---5---5----3---3---3---3--------|
A|-3-----------3----1-----------1----------|
E|-----------------------------------------|

Parte 2 de 4
   G9
E|-----------------------------------------|
B|---------0----------------0--------------|
G|-----2-----2---2------2-----2---2--------|
D|---0---0-----0------0---0-----0----------|
A|-----------------------------------------|
E|-3----------------3----------------------|

Parte 3 de 4
   A
E|-----------------------------------------|
B|-----0---2-0---0------0---2-0---0--------|
G|-----------------------------------------|
D|---2---2-----2------2---2-----2----------|
A|-0----------------0----------------------|
E|-----------------------------------------|

Parte 4 de 4
   D5(9)
E|-----------------------------------------|
B|-----5----------------5------------------|
G|---------7----------------7--------------|
D|---7---7---7---7----7---7---7---7--------|
A|-5-----------5----5-----------5----------|
E|-----------------------------------------|

              C5(9)  Bb5(9)
Oh can't you see            
            G9
You belong to me
                  A     
How my poor heart aches 
                     D5(9)
With every step you take

[Primeira Parte - Variação]

                G9  
Every move you make 
                Em9
Every vow you break
                 C5(9)
Every smile you fake  
                  D5(9) 
Every claim you stake  
                  Em9
I'll be watching you

[Segunda Parte]

Parte 1 de 2
   Eb5(9)   F5(9)      Eb5(9)   F5(9)
E|---6---------8---------6---------8-------|
B|-6---10-8-8----11-10-6---10-8-8----11-10-|
G|-8--------10---------8--------10---------| (2x)
D|-8--------10---------8--------10---------|
A|-6--------8----------6--------8----------|
E|-----------------------------------------|

Parte 2 de 2
    Eb5(9)
E|---6-------------------------------------|
B|-6---10-8--------------------------------|
G|-8---------------------------------------|
D|-8---------------------------------------|
A|-6---------------------------------------|
E|-----------------------------------------|

Eb5(9)
  Since you've gone I been lost without a trace
F5(9)
  I dream at night I can only see your face
Eb5(9)
  I look around but it's you I can't replace
F5(9)
  I feel so cold and I long for your embrace
Eb5(9)                      G9      
  I keep crying baby baby please

(  Em9  C5(9)  D5(9)  Em9  G9  Em9  C5(9)  D5(9)  G9 )

[Refrão]

              C5(9)  Bb5(9)
Oh can't you see            
            G9
You belong to me
                  A     
How my poor heart aches 
                     D5(9)
With every step you take

[Primeira Parte - Variação]
                G9  
Every move you make   
                Em9
Every vow you break
                 C5(9)
Every smile you fake  
                  D5(9)
Every claim you stake  
                  Em9
I'll be watching you
                C5(9) 
Every move you make  
                D5(9) 
Every step you take  
                 Em9
I'll be watching you
                  G9
I'll be watching you

[Final]

G9
  Every breath you take 
  Every move you make
Em9
  Every bond you break
C5(9)
  Every step you take 
  I'll be watching you
G9
  Every single day 
  Every word you say
G9
  Every game you play 
  Every night you stay  
  I'll be watching you

Clipes