busca

Every Breath You Take

The Police

Tom: Dm
(intro) G9  Em9  C5(9)  D5(9)  G9

(violão 2)

(parte 1)
    G9
E|-----------------------------------------
B|---------0----------------0--------------
G|-----2-----2---2------2-----2---2--------
D|---0---0-----0------0---0-----0----------
A|-----------------------------------------
E|-3----------------3----------------------

(parte 2)
    Em9
E|-----------------------------------------
B|-----------------------------------------
G|---------0----------------0--------------
D|-----4-----4---4------4-----4---4--------
A|---2---2-----2------2---2-----2----------
E|-0----------------0----------------------

(parte 3)
    C5(9)                            D5(9)
E|-----------------------------------------
B|-----3----------------5------------------
G|---------5-----5----------7-----7--------
D|---5---5---5--------7---7---7------------
A|-3-----------3----5-----------5----------
E|-----------------------------------------

(parte 4)
    G9
E|-----------------------------------------
B|---------0----------------0--------------
G|-----2-----2---2------2-----2---2--------
D|---0---0-----0------0---0-----0----------
A|-----------------------------------------
E|-3----------------3----------------------

(repete parte 1)

(primeira parte)
                                      Em9
Every breath you take Every move you make
                 C5(9)               D5(9)                  Em9
Every bond you break Every step you take  I'll be watching you

              G9                 Em9
Every single day Every word you say
                 C5(9)                 D5(9)                 G9
Every game you play  Every night you stay  I'll be watching you

(primeira parte - violão 2)

(parte 5)
   G9
E|-----------------------------------------
B|---------0----------------0--------------
G|-----2-----2---2------2-----2---2--------
D|---0---0-----0------0---0-----0----------
A|-----------------------------------------
E|-3----------------3----------------------

(parte 6)
    Em9
E|-----------------------------------------
B|-----------------------------------------
G|---------0----------------0--------------
D|-----4-----4---4------4-----4---4--------
A|---2---2-----2------2---2-----2----------
E|-0----------------0----------------------

(parte 7)
    C5(9)                        D5(9)
E|-----------------------------------------
B|-----3----------------5------------------
G|---------5-----5----------7-----7--------
D|---5---5---5--------7---7---7------------
A|-3-----------3----5-----------5----------
E|-----------------------------------------

(parte 8)
    Em9
E|-----------------------------------------
B|-----------------------------------------
G|---------0----------------0--------------
D|-----4-----4---4------4-----4---4--------
A|---2---2-----2------2---2-----2----------
E|-0----------------0----------------------

(repete tudo - substituindo o acorde de Em9 por G9)

(parte 9)
     G9
E|-----------------------------------------
B|---------0----------------0--------------
G|-----2-----2---2------2-----2---2--------
D|---0---0-----0------0---0-----0----------
A|-----------------------------------------
E|-3----------------3----------------------

(refrão)
              C5(9)  Bb5(9)                G9
oh can't you see            you belong to me
                  A                          D5(9)
How my poor heart aches with every step you take

(refrão - violão 2)

(parte 1)
    C5(9)            Bb5(9)
E|-----------------------------------------
B|-----3----------------1------------------
G|---------5----------------3--------------
D|---5---5---5---5----3---3---3---3--------
A|-3-----------3----1---------1------------
E|-----------------------------------------

(parte 2)
    G9
E|-----------------------------------------
B|---------0----------------0--------------
G|-----2-----2---2------2-----2---2--------
D|---0---0-----0------0---0-----0----------
A|-----------------------------------------
E|-3----------------3----------------------

(parte 3)
    A
E|-----------------------------------------
B|-----0---2-0---0------0---2-0---0--------
G|-----------------------------------------
D|---2---2-----2------2---2-----2----------
A|-0----------------0----------------------
E|-----------------------------------------

(parte 4)
    D5(9)
E|-----------------------------------------
B|-----5----------------5------------------
G|---------7----------------7--------------
D|---7---7---7---7----7---7---7---7--------
A|-5-----------5----5-----------5----------
E|-----------------------------------------

                G9                  Em9
Every move you make Every vow you break
                 C5(9)                  D5(9)                  Em9
Every smile you fake  Every claim you stake  I'll be watching you

(segunda parte)
Eb5(9)
  Since you've gone I been lost without a trace
F5(9)
  I dream at night I can only see your face
Eb5(9)
  I look around but it's you I can't replace
F5(9)
  I feel so cold and I long for your embrace
Eb5(9)                      G9       Em9  C5(9)  D5(9)  Em9  G9  Em9  C5(9)  D5(9)  G9
  I keep crying baby baby please

(segunda parte - violão 2)

(parte 1)
   Eb5(9)    F5(9)     Eb5(9)    F5(9)
E|-6-6------8--8-------6-6------8--8-------
B|-6---10-8-8----11-10-6---10-8-8----11-10-
G|-8--------10---------8--------10---------  (2x)
D|-8--------10---------8--------10---------
A|-6--------8----------6--------8----------
E|-----------------------------------------

(parte 2)
    Eb5(9)
E|-6-6-------------------------------------
B|-6---10-8--------------------------------
G|-8---------------------------------------
D|-8---------------------------------------
A|-6---------------------------------------
E|-----------------------------------------

(refrão)
              C5(9)  Bb5(9)                G9
oh can't you see            you belong to me
                  A                          D5(9)
How my poor heart aches with every step you take
                G9                    Em9
Every move you make   Every vow you break
                 C5(9)                  D5(9)                  Em9
Every smile you fake  Every claim you stake  I'll be watching you
                C5(9)                D5(9)                  Em9
Every move you make  Every step you take  I'll be watching you
                  G9
I'll be watching you

G9
  Every breath you take every move you make
Em9
    every bond you break
C5(9)
    every step you take i'll be watching you
G9
    every single day every word you say
G9
   Every game you play every night you stay  I'll be watching you

Clipes