busca

Fall Out

The Police

Tom: D
Intro/Main Riff:

Listen for additional strumming pattern.

|----------------------|
|----------------------|
|-6h7---8h9-----9--9-9-|
|-7-7---9-9-----9--9-9-|
|-5-5---7-7-----7--7-7-|
|----0-0---0-0-0--0----|

Verse/Chorus:
Play barre chords; listen for strumming pattern.

  A
   I never thought of leading
  
  [F]
   I've got my own machine
  
            [G]     [D]      [A]
  And I've paid my dues all along

 A
  All set for breaking

 [F]
  When I missed those other people

           [G]        [D]   [B]  [A]
  Cause I knew that I was really alone


The chorus uses the same chords.

Solo
This is very close...repeat it twice. You can switch it up a bit, to make it tasty.

|--------------------------------------------|
|----5-------------------------7-------------|
|-7b---5--7p5---5-------5--7b9---9r7-7p5---7-|
|-------------7-----5h7------------------7---|
|-----------------8--------------------------|
|--------------------------------------------|

Clipes