| / slide up / | \ slide down / | ~ vibrato / | + harmonic " /> | / slide up / | \ slide down / | ~ vibrato / | + harmonic ">
busca

King Of Pain Solo

The Police

Tom: A
Tabbed by: Jesse Benedick
Email: C*

Tuning: Standard
 
e|--------9-10-12-12-------10-12-12--------9-10-12-14-12-------10-12-12------|
B|--10-12------------10-12-----------10-12---------------10-12---------------|
G|---------------------------------------------------------------------------|
D|---------------------------------------------------------------------------|
A|---------------------------------------------------------------------------|
E|---------------------------------------------------------------------------|

e|--------9-10-12-12-------10-12-12--------9-10-12-10-9----------------------|
B|--10-12------------10-12-----------10-12--------------12~------------------|
G|---------------------------------------------------------------------------|
D|---------------------------------------------------------------------------|
A|---------------------------------------------------------------------------|
E|---------------------------------------------------------------------------|

| /  slide up
| \  slide down
| h  hammer-on
| p  pull-off
| ~  vibrato
| +  harmonic
| x  Mute note
===============================================================================

Clipes