busca

Miss Gradenko

The Police

Common Time(4/4)
Standard Tuning(EADG)

VERSE:
                  (x5)                    (x4)
|---------------------|-----------------------|
|*-------------------*|*---------------------*|
|*-------------------*|*---------------------*|
|--0-r-0-0-2-2-5b--5--|--5-5-5-5-5-2-2-2-2-3--|
   1 2 & a 3 & 4 & a     1 & a 2 & 3 & a 4 &

CHORUS:
             (x3)            (x2)
|----------------|---------------|--------------|-------------|
|*--------------*|*-------------*|--------------|-------------|
|*--------------*|*-7-----------*|--------------|-7-----------|
|--5---5/10-8-7--|----8-7-5-3-5--|-5---5/10-8-7-|---8-7-5-3-5-|
   1 2 & 3  & 4     1 2 & 3 & 4    1 2 & 3  & 4   1 2 & 3 & 4

END:           
|-------------|-----------|---------|
|-------------|-----------|---------|
|-7-----------|-7-----4---|---------|
|---8-7-5-3-5-|---8-7-----|---------|
  1 2 & 3 & 4   1 2 & 3 4   1 2 3 4

By: Johari Taylor
E-mail: *
More Bass tabs: http://*~viking/*

Clipes