Rehumanize Yourself

The Police

Instrumento: Baixo
Ghost In The Machine 1981
Greg Harper   *

Crotchet = 200 (Approx.) 


G|-------------|-------------|-------------|-------------|
D|-------------|-------------|-------------|-------------|
A|-2-2-2-0---0-|-2-2-2-0---0-|-2-2-2-0---0-|-2-2-2-0---0-|
E|---------2---|---------2---|---------2---|---------2---|


G|-------------|-------------|-------------|-------------|
D|-------------|-------------|-------------|-------------|
A|-2-2-2-0---0-|-2-2-2-0---0-|-2-2-2-0---0-|-2-2-2-0---0-|
E|---------2---|---------2---|---------2---|---------2---|


G|-------------|-------------|-------------|-------------|
D|-------------|-------------|-------------|-------------|
A|-4-4-4-2---2-|-4-4-4-2---2-|-4-4-4-2---2-|-4-4-4-2---2-|
E|---------4---|---------4---|---------4---|---------4---|


G|-------------|-------------|-------------|-------------|
D|-------------|-------------|-------------|-------------|
A|-------------|-------------|-------------|-------------|
E|-5-5-5-3-0-3-|-5-5-5-3-0-3-|-5-5-5-3-0-3-|-5-5-5-3-0-3-|


G|-------------|-------------|-------------|-------------|
D|-------------|-------------|-------------|-------------|
A|-4-4-4-2---2-|-4-4-4-2---2-|-4-4-4-2---2-|-4-4-4-2---2-|
E|---------4---|---------4---|---------4---|---------4---|


G|-------------|-------------|-------------|-------------|
D|-------------|-------------|-------------|-------------|
A|-------------|-------------|-------------|-------------|
E|-5-5-5-3-0-3-|-5-5-5-3-0-3-|-5-5-5-3-0-3-|-5-5-5-3-0-3-|

The rhythm to each bar is as simple as it gets.

|QQQQ C C|

Composição: Andy Summers / Big Joe Williams / Bruce Springsteen / Glen Phillips / John Mayer / Sergei Prokofiev / Stewart Coopeland / Stewart Copeland / Sting / The PoliceColaboração e revisão: