busca

Shadows In The Rain

The Police

Play this repeatedly for the intro:
G|-------------------------|
D|-------------------------|
A|-------------------------|
E|-5-5-0-3-5-3---5-0-3-5-3-|

Then this for the rest of the song:

  Woke up in my clothes...
G|-----------------------|
D|-----------------------|
A|-----------------------|
E|-5-0-3-5-3---5-0-3-5-3-|

  Don't know exactly...
G|-----------------------|
D|-----------------------|
A|-5-0-3-5-3---5-0-3-5-3-|
E|-----------------------|

  I should heade...
G|-----------------------|
D|-3-2-0-3-2---3-2-0-3-2-|
A|-----------------------|
E|-----------------------|

  He does the best...
G|-----2-4-2---------7-9----|
D|-2-4-------4---7-9--------|
A|-----------------------7\-|
E|--------------------------|

And that's shadows in the rain (to my ears anyway). Contact me if you think there's 
wrong with this TAB and I will edit it.

\ = Slide Down
/ = Slide Up

Clipes