busca

Tea In Sahara

The Police

Tabbed By : Valerie L.
e-mail: *

Intro
G|-----------|     |-----------|
D|-----------|     |-----------|
A|44-2-4-----|     |--44-2-4---|
E|-----------| x5  |4----------| x12

Verse
G|---------------------|
D|---------------------|
A|---------------------|
E|2-2--2-2--5-5--5-5---| x8

Chorus
G|----------------------|
D|----------------------|
A|7-7-----7-------------|
E|------0----5-5--7-7---| x2

Verse x8

Chorus
G|------------------------|
D|------------------------|
A|7-7-7-------------------|
E|------0-0--5-5--7-7-----|

Bridge
G|----------|    |-----------|
D|----------|    |-----------|
A|44-2-4----|    |2-44-2-4---|
E|----------| x2 |-----------| x7

Verse x8

Chorus 
G|----------------------|
D|----------------------|
A|7-7-----7-------------|
E|------0----5-5--7-7---| x5

Outro
G|----------|  |-----------| |----------|
D|----------|  |-----------| |----------|
A|44-2-4----|  |2-44-2-4---| |22----2---|
E|----------|  |-----------| |----0-----|

Clipes