busca

Voices Inside My Head

The Police

Tabbed By: Belavista Man
On: 21/3/07
Email: *

Intro part:
G|-----------------------------------------------------------------------|
D|-----------------------------------------------------------------------|
A|-0-2-2-0-2---0-2-2-0-2---0-2-2-0-2---0-2-2-0-2---0-2-2-0-2---0-2-2-0-2-|
E|-----------------------------------------------------------------------|

G|-----------------------------------------------------------------------|
D|-----------------------------------------------------------------------|
A|-0-2-2-0-2--0-2-2-0-2--0-2-2-0-2--0-2-2-0-2-------0-2-2-0-2--0-2-2-0-2-|
E|--------------------------------------------3p2-0----------------------|


G|-----------------------------------2-4-|
D|-------------------------------2-4-----|
A|-2-2-2-2-2---------2-2-2-2-2-4---------|
E|-----------0-0-2-2---------------------|

Quiet part at the end of the song is just same bassline as the intro.

Clipes