busca

A Beleza do Ponteio

Tião Carreiro e Pardinho

Tom: E
CIFRA DE VIOLA CAIPIRA 

Tom: E
E|-----------------------------------------------------------------0-0-0-0-0-0-0--
B|--------------------------------------------------------------------------------
G#|------3-6-5h6p5------3----------------3-6-5h6p5------3-----------0-6-5-0-1---0-- Introdução
E|----4--------------4---5-4h5p4------4--------------4---5-4h5p4-------------2----
B|--5--------------5----------------5--------------5------------------------------

E|-0-0---0---0-0---0-
B|-0-0-------0-0-----
G#|-0-0---0---0-0---0- Parte 1
E|-0-0-2-----0-0-----
B|-----3---------3---

* Repete Parte 1 (E) *
Muita gente me perguntam se eu nasci em Juiz de Fora
Barbacena ou Lafaiete Ouro Preto ou Pirapora
Com toda sinceridade vou esclarecer agora

E|--0-------0--0-0-0----0-------0--0-0-0----3-----0--
B|-------------0-0-0---------------0-0-0----3--0--0--
G#|--6---5---3--0-0-0----6---5---3--0-0-0----3--1--0-- Ponte
E|----0---0----0-0-0------0---0----0-0-0----3--2--0--
B|-------------0-0-0---------------0-0-0----3--0--0-- 

E|--------------------
B|--------------------
G#|-6---3---6---3------ Parte 2
E|-5---4---5---4------
B|---0---0---0---0----

* Repete Parte 2 *
Pode ver que está na cara que eu sou puro mineiro
Cidade de Montes Claros é meu torrão verdadeiro
o meu pai já me ensinava a cantiga do carreiro

     E                         B7
Por isso mesmo eu não quero carrear
         E                      B7
O carro vira e o carreiro vai sambar

Introdução

* Parte 1 *
Quanto mais cantava o carro eu ficava mais contente
Eu ainda era um candeeiro o piá que vai na frente
E às vezes eu pensava numa vida diferente

Ponte

* Parte 2 *
Mesmo o meu pai me dizendo ser carreiro é sua sina
Cismei de ser garimpeiro e rumei pra Diamantina
Ainda lembro as cantiga que cantava lá na mina

      B7       E         B7          E
Esta cata está funda vão descendo devagar
    B7              E           B7          E
Um escora e outro segura pra ninguém se machucar

E|---[7]-----[12]----
B|---[7]-----[12]----
G#|---[7]-----[12]----
E|---[7]-----[12]----
B|---[7]-----[12]----

 E
tim dê... tim dá
tim dê... tim pá
tim dê... tim dá
tim dê... tim pá

Introdução

* Parte 1 *
Eu fui pra Belo Horizonte já não era mais menino
Quando eu fiz dezoito anos vi chegar o meu destino
Fui sorteado pra servir no quartel de Ouro Fino

Ponte

* Parte 2 *
Mas agora felizmente vejo o meu Brasil inteiro
Que já sabem ver beleza no ponteio do violeiro
Hoje eu lembro com saudade o meu tempo de carreiro

     E                         B7
Por isso mesmo eu não quero carrear
         E                      B7
O carro vira e o carreiro vai sambar

* Parte 1 (até terminar) *

Clipes

Cifra Club Pro

Aproveite o Cifra Club com benefícios exclusivos e sem anúncios
Cifra Club Pro
Aproveite o Cifra Club com benefícios exclusivos e sem anúncios