busca

Caçador

Tião Carreiro e Pardinho

Tom: E
Solo: (viola caipira)

E|----0---------------------------------------9---7/10-10~--10-9--7-5-4-2--------------0-0-0-/
B|---0--------------------------------------10--9/12--12~--12-10-9-7-5-4--5-4-2-0------0-0-0-/
G#|--0---------------------------------7-8--------------------------------5-3-1-0-1-0--0-0-0-/
E|---0-----2/7-7~-7~-7~-7~-7~-7~-7~--9--------------------------------------------2-0--0-0-0-/
B|---0---------------------------------------------------------------------------------0-0-0-/

(riff)viola caipira        p i p

E|-------------------------2-2-2-/
B|-------------------------0-0-0-/
G#|------------------------1-1-1-/
E|----------2--------------2-2-2-/
B|--0-2-4-----4-2--4-2-0---0-0-0-/

p= polegar p/ baixo

i= indicador p/ cima


B7                                                                                             (riff)
Mandei fazer uma canoa fundo preto e barra clara dois remo de guaranta e um varejao de gaiçara
                           A             B7          E    B7 E (solo)
Ai,ai o apoito pesa uma arroba, jogo na agua o bote para

            B7                                                                              (riff)
Tenho uma trela de cachorro o marengo e a caiçara a sua especialidade corre anta e capivara
                             A          B7         E         B7 E (solo)
Ai,ai sorto os cachorros no rastro vai rebentando taquara

B7                                                                                                 (riff)
Eu tenho uma cartucheira de qualidade bem rara e uma dois cano trunchado que ate pranchao ela vara
                         A       B7               E    B7 E (solo)
Ai,ai a anta deita na fumaça na hora que ela dispara

B7                                                                                              (riff)
A anta se apicha n´agua na corenteza nao para vai com a cabeça de fora e a dois cano ja dispara
                          A             B7          E   B7 E (solo)
Ai,ai a bicha prancheia n´agua e so fisgar ela na vara

B7                                                                                                    (riff)
Do coro eu transo um laço cabeçada e redias caras a carne eu vendo no açogue mai pro gasto nois separa
                          A         B7              E      B7 E
Ai,ai tambem faço meus pagodes nas noites de lua clara.

Clipes

Cifra Club Pro

Aproveite o Cifra Club com benefícios exclusivos e sem anúncios
Cifra Club Pro
Aproveite o Cifra Club com benefícios exclusivos e sem anúncios