A
123
X02220
B7
1234
X21202
E
123
022100
E7
1234
022130
Tom: G
[Intro]


E|---4/10---10---9----7---000---
B|---5/12---12---10---9---000---
G|------------------------000---
D|------------------------000---
A|------------------------000---
E|------------------------------

E|10---10---9----7-----000----| 
B|12---12---10---9-----000----| 
G|---------------------000----| 
D|---------------------000----| 
A|---------------------000----| 
E|----------------------------| 



E|----------------------000-------
B|----------------------000-------
G|---3---3---1---0------000---3---
D|---4---4---2---0------000---4---
A|----------------------000-------
E|--------------------------------

E|--------------------------| 
B|----------------0---------| 
G|3---1---0------------6----| 
D|4---2---0------0--4-----4-| 
A|----------------5---------| 
E|--------------------------| 



E|--------------------------------
B|-----0-------------0------------
G|---------------------------6----
D|----------2p0---------0--4---4--
A|---0---4------2h4--5------------
E|--------------------------------

E|------------------------------| 
B|----0-------------0-----------| 
G|--------------------------6---| 
D|---------2p0---------0--4---4-| 
A|--0---4------2h4--5-----------| 
E|------------------------------| 



E|-------------------------0--0--
B|-----0---0---0---0--0----0--0--
G|-------------------------6--6--
D|---------2---4---2-/4----4--4--
A|-----0---4---2---4-/5----5--5--
E|-------------------------------

E|0-----0--0--0------------------| 
B|0-----0--0--0------------------| 
G|6-----6--6--6------------------| 
D|4-----4--4--4------------------| 
A|5-----5--5--5------------------| 
E|-------------------------------| 


E7
Eu não caio do cavalo  nem do burro 
e nem do galho
Ganho dinheiro cantando a viola é 
meu trabalho
                   A               
No lugar onde tem seca eu de sede 
       B7   A  B7
lá não caio
E Levanto de madrugada e bebo pingo B7 E de orvalho chora viola ! E7 Não como gato por lebre não compro cipó por laço Eu não durmo de botina não dou beijo sem abraço A Fiz um ponto lá na mata caprichei e B7 A B7 dei um nó E Meus amigos eu ajudo inimigo tenho B7 E dó chora viola ! E7 A lua é dona da noite e o sol é dono do dia Admiro as mulheres que gostam de cantoria A Mato a onça e bebo o sangue furo a B7 A B7 terra e tiro o ouro E Quem sabe agüentar saudade não B7 E agüenta desaforo chora viola ! E7 Eu ando de pé no chão piso por cima da brasa Quem não gosta de viola que não ponha o pé lá em casa A A viola está tinindo o cantador tá B7 A B7 de pé E Quem não gosta de viola brasileiro B7 E bom não é chora viola !
Composição: Lourival dos Santos / Tião CarreiroColaboração e revisão: Marcos PauloGleisson RodriguesGustavo MancaLuiz Joaquime mais 2