Faca Que Não Corta

Tião Carreiro e Pardinho

A
123
X02220
B
234
X24442
B7
1234
X21202
E
123
022100
Tom: G
[Intro]  E  B7  E  B7  E  B7

#1t1##1t2#E|--0------------------------------------------------------7---------|
B|---0----0------0------0------0--------0------0-------------7-------|
G|--0------------------------------------------------------7---------|
E|--0----2----2-5----4-2-----2-5------4-2-----25------4-2/7-77---7---|
B|---0--0----0------0------0-------0-------0------0----------7-------|#/1t2##/1t1#

#2t1##2t2#E|----11---0-9---0-7----0-4----0-7----0-5----0--0----|
B|----12---0-10---0-9----0-5----0-9----0-7----0--0---|
G|----------------------------------------0----------|
E|----------------------------------------0----------|
B|---0----0----0-----0------0-----0------0----0------|#/2t2##/2t1#

 A     E   A
Viola que não presta
 B       E
Faca que não corta
    B          E
Se eu perder, pouco me importa

E
O cabo da minha enxada era um cabo bacana
           B
Não era de guatambu, era de cana caiana
 A             E
Um dia lá na roça, me deu sede toda hora
           B               E
Chupei o cabo da enxada e joguei a enxada fora

A      E   A
Enxada que não presta
 B       E
Faca que não corta
      B          E
Se eu perder, pouco me importa

 E
Corri atrás de uma onça, Preparando pra atirar
          B
Do estado de São Paulo atravessou pro Paraná
 A             E
A caça que eu atiro eu juro que não escapa
           B               E
A cartucheira falhou eu peguei a onça no tapa

 A         E   A
Cartucheira que não presta
 B       E
Faca que não corta
      B          E
Se eu perder, pouco me importa

 E
Peguei o meu dinheiro emprestei prum camarada
          B
O sujeitinho sumiu, nem dinheiro e, nem mais nada
 A          E
Dinheiro emprestado é um grande perigo
            B                E
A gente perde o dinheiro e também perde o amigo

A     E   A
Amigo que não presta
 B       E
Faca que não corta
      B          E
Se eu perder, pouco me importa

E
A fazenda do meu sogro faz divisa com a minha
          B
Presente de casamento, ele me deu pois eu não tinha
 A           E
Com esse casamento fiquei rico de repente
         B               E
Casei com sua fazenda trouxe a moça de presente

 A      E   A
Casamento que não presta
 B       E
Faca que não corta
      B          E
Se eu perder, pouco me importa
Composição: Lourival dos Santos / Moacyr dos SantosColaboração e revisão: alberto alMarcos PauloGleisson RodriguesJoão Arantese mais 2