busca

Nossa Senhora da Guia

Tião Carreiro e Pardinho

Tom: E
B |-0-2-3----------------------------------------|
E |----------------------------------------------|
G#|----------------------------------------------|
B |--------5-5-5-7-5-5--5-7-9-10-10-10-12-10-10--|
E |--------4-4-4-5-4-4--4-5-7--9--9--9-10--9--9--|

B |----------------------------------------------|
E |----------------------------------------------|
G#|----------------------------------------------|
B |-10-10/12--12-12--12-12/14-12-12--12-12/14-12-|
E |--9--9/11--11-11--11-11/12-11-11--11-11/12-12-|

B |----------------------------------------------|
E |----------------------------------------------|
G#|----------------------------------------------|
B |-10-9-7-5---0-4-------------------------------|
E |--9-7-5-4-------2-5-4-2-0---------------------|

      E                    A
Nossa Senhora da Guia padroeira dos navegantes
    B7               E     B7                  E
Mãe de Deus Santa Maria rogai por nós nesse instante
    E7                                    B7
Os que nascem nesse dia os que estão agonizantes
                   E        B7                  E
Os cegos da luz do dia e os que estão no mundo errante

B |-0-2-3----------------------------------------|
E |----------------------------------------------|
G#|----------------------------------------------|
B |--------5-5-5-7-5-5--5-7-9-10-10-10-12-10-10--|
E |--------4-4-4-5-4-4--4-5-7--9--9--9-10--9--9--|

B |----------------------------------------------|
E |----------------------------------------------|
G#|----------------------------------------------|
B |-10-10/12--12-12--12-12/14-12-12--12-12/14-12-|
E |--9--9/11--11-11--11-11/12-11-11--11-11/12-12-|

B |----------------------------------------------|
E |----------------------------------------------|
G#|----------------------------------------------|
B |-10-9-7-5---0-4-------------------------------|
E |--9-7-5-4-------2-5-4-2-0---------------------|

      E                   A
Nossa Senhora da Guia por vosso Jesus Infante
   B7               E     B7                 E
Como o pão de cada dia fazei que eu exalte e cante
   E7                                  B7
Do mundo toda poesia a Lua e o Sol brilhante
                  E         B7              E
Nas pedras a água fria e as lágrimas do semblante

B |-0-2-3----------------------------------------|
E |----------------------------------------------|
G#|----------------------------------------------|
B |--------5-5-5-7-5-5--5-7-9-10-10-10-12-10-10--|
E |--------4-4-4-5-4-4--4-5-7--9--9--9-10--9--9--|

B |----------------------------------------------|
E |----------------------------------------------|
G#|----------------------------------------------|
B |-10-10/12--12-12--12-12/14-12-12--12-12/14-12-|
E |--9--9/11--11-11--11-11/12-11-11--11-11/12-12-|

B |----------------------------------------------|
E |----------------------------------------------|
G#|----------------------------------------------|
B |-10-9-7-5---0-4-------------------------------|
E |--9-7-5-4-------2-5-4-2-0---------------------|

      E                      A
Nossa Senhora da Guia sou um violeiro caminhante
    B7                E     B7               E
Não deixai minha valentia faça meu braço arrogante
   E7                                  B7
No mundo só tem valia quem ama seu semelhante
                    E        B7              E
Dai-me a luz que alumia meus passos atrás e adiante

B |-0-2-3----------------------------------------|
E |----------------------------------------------|
G#|----------------------------------------------|
B |--------5-5-5-7-5-5--5-7-9-10-10-10-12-10-10--|
E |--------4-4-4-5-4-4--4-5-7--9--9--9-10--9--9--|

B |----------------------------------------------|
E |----------------------------------------------|
G#|----------------------------------------------|
B |-10-10/12--12-12--12-12/14-12-12--12-12/14-12-|
E |--9--9/11--11-11--11-11/12-11-11--11-11/12-12-|

B |----------------------------------------------|
E |----------------------------------------------|
G#|----------------------------------------------|
B |-10-9-7-5---0-4-------------------------------|
E |--9-7-5-4-------2-5-4-2-0---------------------|

Clipes

Cifra Club Pro

Aproveite o Cifra Club com benefícios exclusivos e sem anúncios
Cifra Club Pro
Aproveite o Cifra Club com benefícios exclusivos e sem anúncios