busca

Nove e Nove

Tião Carreiro e Pardinho

Tom: B
D|----------------------------------------------------------------------
A|-----------0--------0---------0---------------------0----------0------
F#|----------------------------------------------------------------------
D|---2--4-5------5-4------2-5--------2--------2--4-5-------4-5------2--2
A|-0-----------0--------0---------0-----4---0-----------0---------------

D|--------------------------------------------------------------------
A|-----------0--------0---------0--------------0------0---------------
F#|--------------------------------------------------------------------
D|---2--4-5------5-4------2-5--------2---------------------2----------
A|-0-----------0--------0---------0-----4---0----2--4----------5--2--0


Introdução: E 

       B7 
Para frente e para o alto eu nunca posso parar 
 
Comigo é no nove e nove, nove e nove eu vou contar; 
 
Meus versos tem nove e nove, nem um nove vai faltar 
  E                             B7         E   F#  E 
Eu vou dar o resultado que os nove e nove dá!  
 
 B7             
Eu nasci no dia nove, nove horas fui pagão  
 
Nove padre e nove igreja, nove vezes fui cristão;  
 
Eu entrei em nove escola, e aprendi nove lição,  
 E                           B7            E  F# E 
Eu ganhei nove medalhas, quebrei nove campeão!  
 
  B7  
Nove baiano valente junta nove valentia, 
 
Nove susto, nove choro, correndo nove família, 
  
Nove baiano pulando, contra nove ferro fria 
  E                        B7            E F# E 
Nove facão tá tinindo, nove bainha vazia!  
 
B7    
Entrei em nove pagode, topei nove valentão,  
 
Nove tapa e nove tombo, nove caboclo no chão; 
 
Nove processo correndo e trabalha nove escrivão,  
E                        B7            E  F#   E 
Nove ordem de soltura, nove advogado bom! 
 
B7  
Tive nove namorada, nove vezes fui casado,  
 
Nove sogra e nove sogro, nove lar abandonado; 
 
Quando foi no dia nove topei nove cabra armado,  
E                           B7                  E F#  
Nove tiro eu dei pra cima, fiz correr nove cunhado!

Clipes

Cifra Club Pro

Aproveite o Cifra Club com benefícios exclusivos e sem anúncios
Cifra Club Pro
Aproveite o Cifra Club com benefícios exclusivos e sem anúncios