busca

O Gavião e a Andorinha

Tião Carreiro e Pardinho

Tom: B
E
Lá no bairro onde eu moro a coisa vai ficar feia,
                                               B
Ali mora uma andorinha que tem dente e sobrancelha,
   F#
Também tem um gavião que a muito tempo rodeia.
     B                                        E    B E
na volta da meia noite e que o tal gavião passeia.

E
É um gavião luxento anda de sapato e meia,
                                           B
Também adivinha chuva sem que o ar diferenceia,
  F#
Não senta em galho seco não deixa rastro na areia,
   B                                          E   B E
Eu tô vendo qualquer hora gavião dorme na cadeia.

E
Andorinha tem quem mande e trás no pé da correia,
                                   B
Quem governa é o urutu que mora em baixo da teia,
     F#
Andorinha facilita o gavião não bobeia,
   B                                       E    B E
No meio da passarada por sinal os dois proseia.
E
Na festa dos passarinhos os dois tavam de pareia,
                                      B
Gavião tava contente de gravatinha vermeia,
    F#
Andorinha bem vestida brinco de ouro na oreia,
   B                                    E    B E
Urutu chegou na festa gavião perdeu a ceia.


 E
Gavião saiu quebrado arrastou asa na areia,
                                            B
Mancando da perna esquerda igual porco na peia,
   F#
Andorinha tá quietinha não voa e nem proseia,
   B                                      E
Urutu quando dá bote pula certo e não farseia.


0-4-5-7-09-11-12-11-11-09-09-7-7-4-4-6--6-6-6-6-6-6-6-4-4-2-2-0-0--
0-5-7-9-10-12-14-12-12-10-10-9-9-5-5-8--8-8-8-8-8-8-8-5-5-4-4-2-2-4
0-----------------------------------------------------------------3
0------------------------------------------------------------------
0------------------------------------------------------------------

4/11-11-11-11-11-11-11-09-09-7-7-5-5-4-----------------------------
5/12-12-12-12-12-12-12-10-10-9-9-7-7-5-----------------------------
-------------------------------------------------------------------
-------------------------------------------------------------------
-------------------------------------------------------------------
RIFF
 E       B        F#          B         E       B         E
----  --------  ------0-4-2-  ----2-----0---4-0-----2-----0
4h5-  ----3h4-  ----2-------  --4---4-------------4---4----
----  2h3-----  --2---------  3-------3---------3-------3--
----  --------  2-----------  -----------------------------
----  --------  ------------  -----------------------------

Clipes

Cifra Club Pro

Aproveite o Cifra Club com benefícios exclusivos e sem anúncios
Cifra Club Pro
Aproveite o Cifra Club com benefícios exclusivos e sem anúncios