busca

Oi Paixão

Tião Carreiro e Pardinho

Tom: Bb
[Intro]  C  F7  C  Bb  Eb  Bb F7 Bb

E|------------------------------------------------------------------------7-|
B|-2/6-6-6-6-6-6----------------------------------------------------------7-|
G|-2/5-5-5-5-5-5-5-5-2-2-5-5-3-3-2^3^2~-----------------------------------7-|
D|--------------------------------------------------------------------------|
A|--------------------------------------------------------------------------|
E|--------------------------------------------------------------------------|

E|---------------6-6-2-2-6-6-4-4-2^4^2~-/4-4-4-4/7--7---2-2/6-6~---2------7-|
B|--------------------------------------/5-5-5-5/9~-9---4-4/7-7--4-4--2~--7-|
G|--------------------------------------------------------------------------|
D|--------------------------------------------------------------------------|
A|--------------------------------------------------------------------------|
E|--------------------------------------------------------------------------|

 Bb                                          F7
Não suportando a saudade, meu bem vim lhe visitar
                                             Bb     Bb7
Trazendo flores bonitas, pra o nosso amor enfeitar
 Eb                                              F7
Distante dos teus carinhos, eu sofro tanto e reclamo
                                           Eb         F7              Bb
Te juro minha querida, vou terminar minha vida, nos braços de quem eu amo
C              F7           Bb                   C  F7  Bb  C  F  Eb  Bb  F7  Bb
Ooohhh, hoooi paixão, nos braços de quem eu amo

      Bb                                     F7
Nosso amor não tem limite, não sei onde vai parar
                                            Bb  Bb7
Quanto mais você me ama, mas eu quero te amar
  Eb                                 F7
Uma dor de cotovelo, machuca eu e você
                                              Eb           F           Bb
Somos dois apaixonados, vive alguem ao nosso lado, fazendo a gente sofrer
C                 F7     Bb                  C  F7  C  F  Eb  Bb  F7  Bb
Ooohhh, hoooi paixão, fazendo a gente sofrer

   Bb                                  F7
O nosso caso de amor, esta correndo perigo
                                                      Bb   Bb7
Mas quem tem anjo de guarda, não cai nas mãos do inimigo
   Eb                                        F7
Somente as forças ocultas, poderão nos castigar
                                            Eb        F               Bb
Mas amar não é pecado, deus esta do nosso lado, ninguem vai nos separar
C                 F7       Bb                 F7  Bb
Ooohhh, hoooi paixão, ninguém vai nos separar

Clipes

Cifra Club Pro

Aproveite o Cifra Club com benefícios exclusivos e sem anúncios
Cifra Club Pro
Aproveite o Cifra Club com benefícios exclusivos e sem anúncios