Bb
234
X13331
Bb7
34
X13131
C
123
X32010
Eb
234
X65343
F
234
133211
F7
34
131211
Tom: G
[Intro]  C  F7  C  Bb  Eb  Bb F7 Bb


E|-------------------------------
B|-2/6-6-6-6-6-6-----------------
G|-2/5-5-5-5-5-5-5-5-2-2-5-5-3-3-
D|-------------------------------
A|-------------------------------
E|-------------------------------

E|-----------------------------------------7-| 
B|-----------------------------------------7-| 
G|2^3^2~-----------------------------------7-| 
D|-------------------------------------------| 
A|-------------------------------------------| 
E|-------------------------------------------| 



E|---------------6-6-2-2-6-6-4-4-
B|-------------------------------
G|-------------------------------
D|-------------------------------
A|-------------------------------
E|-------------------------------

E|2^4^2~-/4-4-4-4/7--7---2-2/6-6~---
B|-------/5-5-5-5/9~-9---4-4/7-7--4-
G|----------------------------------
D|----------------------------------
A|----------------------------------
E|----------------------------------

2------7-| 
4--2~--7-| 
---------| 
---------| 
---------| 
---------| 


 Bb                              
Não suportando a saudade, meu bem 
            F7
vim lhe visitar
Trazendo flores bonitas, pra o nosso
         Bb     Bb7
 amor enfeitar
 Eb                                
Distante dos teus carinhos, eu 
              F7
sofro tanto e reclamo
Te juro minha querida, vou terminar 
       Eb         F7              
minha vida, nos braços de quem eu 
Bb
amo
C F7 Bb Ooohhh, hoooi paixão, nos braços C F7 Bb C F de quem eu amo Eb Bb F7 Bb Bb Nosso amor não tem limite, não sei F7 onde vai parar Quanto mais você me ama, mas eu Bb Bb7 quero te amar Eb Uma dor de cotovelo, machuca eu e F7 você Somos dois apaixonados, vive alguem Eb F ao nosso lado, fazendo a gente Bb sofrer C F7 Bb Ooohhh, hoooi paixão, fazendo a C F7 C F Eb gente sofrer Bb F7 Bb Bb O nosso caso de amor, esta correndo F7 perigo Mas quem tem anjo de guarda, não cai Bb Bb7 nas mãos do inimigo Eb Somente as forças ocultas, poderão F7 nos castigar Mas amar não é pecado, deus esta do Eb F Bb nosso lado, ninguem vai nos separar C F7 Bb Ooohhh, hoooi paixão, ninguém F7 Bb vai nos separar
Composição: Tião Carreiro / Zé PauloColaboração e revisão: Gilson SilvaBruno ChamoneMarcos Paulobruno almeidae mais 3

Utilizamos cookies para personalizar sua experiência. Ao acessar o site, você concorda com a nossa Política de Privacidade.