busca

Pousada de Boiadeiro

Tião Carreiro e Pardinho

Tom: A
     |------------------------------------------- 
     |------5-5-5-5-5-5-5/7-7-7-5-7-5-5-5--------
(1)  |--5-5-5-5-5-5-5-5-5/6-6-6-5-6-5-5-5-6-5-5--
     |--5-5-------------------------------7-5-5--
     |-------------------------------------------

     |--------------------------------------------- 
     |---------------------------------------------
(2)  |--0-0-6-6-6-5-5-5-3-3-3-1-1-1-0-0-0----------
     |--0-0-7-7-7-5-5-5-4-4-4-2-2-2-0-0-0-2-----0--
     |------------------------------------3-0-1-2--

     |------------------------------------------- 
     |----------------------------------------0--
(3)  |---------------------0-0-0-0-0-1-0-0-3--0--
     |--0-0-2-2-2-0-0-0----0-0-0-0-0-2-0-0-4--0--
     |--2-2-3-3-3-2-2-2-0---------------------0--

     |------------------------------------------------
     |---------------------------------------------5--
(4)  |--0-0-5-5-5-3-3-1-0-0-0-1-0-0-0--------------5--
     |--0-0-5-5-5-4-4-1-0-0-0-1-0-0-0-0-0-0-----2--5--
     |--------------------------------2-2-2-0-0-3--5--

(1) Eu recordo com muita saudade a fazenda que eu me criei
(2) A escola coberta de tábua e a professorinha com quem estudei
(3) Meu cavalo ligeiro de cela e as estradas que nele passei
(4) Tdo isso me vem na lembrança o tempo da infância que longe eu deixei aí

(1) Eu dançava nos fins de semana os bailinhos do velho matão
(2) O matungo pousava no toco seguro nas rédeas manoteando o chão
(3) A sanfona gemia num canto com viola pandeiro e violão
(4) Minha dama encurtava o passo sentindo o compasso do meu coração

(1) Esse tempo já vai bem distante tudo tudo na vida mudou
(2) O piquete das vacas leiteiras cobriu-se de mato enfim se acabou
(3) Os parentes mudaram de rumo ninguém sabe também onde estou
(4) Despedi-me numa madrugada seguindo a estrada que Deus me traçou

(1) Adeus conceição do monte alegre adeus povo do bairro Cancã
(2) Adeus pousada de boiadeiros abrigo dos peões de echaporã
(3) Lá reside o César Botelho que demonstra ser meu grande fã
(4) Com saudade de todos vocês eu volto talvez num outro amanhã aí

     |------------------------------------------------------ 
     |----------------2------------2-2----2-----------------
(5)  |--2-2-2-2-2-2-3-2--5-5-5-3-2-2-2----2-3-2-2-2-2-2-2---
     |--2-2-2-2-2-2-4----6-6-6-4-2----------4-2-2-2-2-2-2---
     |------------------------------------------------------

       Desculpe se eu não falei de outras terras que andei lá pras bandas de Ajicê

     |--------------------------------------
     |--------------------------------------
(6)  |--0-0-0-0-0-0----------2-2-2-2--------
     |--0-0-0-0-0-0-2-2------2-2-2-2--------
     |--------------4-4-0------------0-0-0--

       São Mateus também Santa Ida daquela gente querida

     |------------------------ 
     |------------------------
(6)  |---------------0-0-0----
     |----------2----0-0-0----
     |--0-0-0-2-4-0-----------

       Eu nunca vou me esquecer

Clipes

Cifra Club Pro

Aproveite o Cifra Club com benefícios exclusivos e sem anúncios
Cifra Club Pro
Aproveite o Cifra Club com benefícios exclusivos e sem anúncios