busca

Prato do Dia

Tião Carreiro e Pardinho

Tom: C
[Intro]

E|---------------------------------------------------------------------------------------------|
B|---------------------------------------------------------------------------------------------|
G|------------2--------------2-----------------------------------------------------------------|
D|------2----------2----3----------2---3-----0-------------------------------------------------|
A|--3------------------------------------------------------------------------------------------|
E|---------------------------------------------------------------------------------------------|

E|---------------------------------------------------------------------------------------------|
B|-----------------------------------------------------1---------------------------------------|
G|-----0----0--0---0------------------------------0--------------------------------------------|
D|------------------------3--2--------------------2--------------------------------------------|
A|---------------------------------0--2---3-----3----------------------------------------------|
E|---------------------------------------------------------------------------------------------|

          C
Sobre as margens de uma estrada 
     G                  C
Uma simples pensão existia
   C7                 F
A comida era tipo caseira
            C                   F    C  F
E o frango caipira era o prato do dia
        C                 F
Proprietário homem de respeito
        C               F   F7
Ali trabalhava com sua família
                     G7
Cozinheira era a sua esposa
                           C
E a garçonete era uma das filhas

         C
Foi chegando naquela pensão
     G                  C
Um viajante já fora de hora
   C7                 F
Foi dizendo para a garçonete
            C                 F    C  F
Me traga um frango vou jantar agora
        C                 F
Eu estou bastante atrasado
        C               F   F7
Terminando eu já vou embora
                     G7
Ela então respondeu num sorriso
                              C
Mamãe tá de pé, pode crer, não demora

         C
Quando ela foi servir a mesa
     G                  C
Delicada e com muito bom jeito
   C7                 F
Me desculpe mas trouxe uma franga
            C                 F    C  F
Talvez não esteja cozida direito
        C                 F
O viajante foi lhe respondendo
        C               F   F7
Pra mim franga crua talvez eu aceito
                     G7
Sendo uma igual a você
                              C
Seja a qualquer hora também não enjeito

         C
Foi saindo de cabeça baixa
     G                  C
Pra queixar ao seu pai a mocinha
   C7                 F
Minha filha mate outra franga
            C                 F    C  F
Pode temperar porém não cozinha
        C                 F
Vou levar essa franga na mesa
        C               F   F7
Se bem que comigo a conversa é curtinha
                     G7
É a coisa que mais eu detesto
                              C
Ver homem barbado fazendo gracinha

         C
Foi chegando o velho e dizendo
     G                  C
Vim trazer o pedido que fez
   C7                 F
Quando o cara tentou recusar
            C                 F    C  F
Já se viu na mira de um Schimitt inglês
        C                 F
O negócio  foi limpar o prato
        C               F   F7
Quando o proprietário lhe disse cortez
                     G7
Nós estamos de portas abertas
                              C          F   G7  C
Pra servir a moda que pede o freguês

Clipes

Cifra Club Pro

Aproveite o Cifra Club com benefícios exclusivos e sem anúncios
Cifra Club Pro
Aproveite o Cifra Club com benefícios exclusivos e sem anúncios