busca

Violeiro Solteiro

Tião Carreiro e Pardinho

Tom: D
(Riff 1)
E|-------------------------|---------------------------|-
B|-4-4-4-4-4-4-4-5-4-2-0---|-2-2-2-2-2-2-4-2-0---------|-
G|-3-3-3-3-3-3-3-5-3-1-0-1-|-1-1-1-1-1-1-3-1-0-1-0-----|-
E|-----------------------2-|-------------------2-0-----|-
B|-------------------------|---------------------------|-

(Riff 2)
E|-------------------------|---------------------------|-
B|-------0-2-2-0-0---------|---------------------------|-
G|-0-0-1-0-1-1-0-0-1-0-----|-------0-1-0-0-3-1-1-0-0---|-
E|-0-0-2-----------2-0-2---|-------0-2-0-0-4-2-2-0-0---|-
B|---------------------4---|-0-2-4---------------------|-

(Riff 3)
E|-------------------------|---------------------------|-
B|-------------------------|---------------------------|-
G|-2-2-2-2-2-2-------------|-------0-1-0-0-3-1-1-0-0---|-
E|-2-2-2-4-2-2-2-2-2-2-0-0-|-------0-2-0-0-4-2-2-0-0---|-
B|-------------4-4-2-2-0-0-|-0-2-4---------------------|-
-

(Riff 4)
E|-------------------------|---------------------------|-
B|-------0-2-2-0-0------5--|-------0-2-2---------------|-
G|-0-0-1-0-1-1-0-0-1-1--5--|-0-0-1-0-1-1---0-1-1-0-----|-
E|-0-0-2-----------2-2-----|-0-0-2-------2-0-2-2-0-----|-
B|-------------------------|-------------4-------------|-


(Acordes do repique: E A7)

(Riff 1)
D                                   A
 Por eu ter noticia de um bom cantador
                                 D
De uma linda moça do nosso interior

(Riff 2)
                 G                    A
Pediu que eu cantasse ao menos por favor
                   D          A7        D
Nem que fosse uns versos dos mais inferior

(Riff 3)
 E                                 A
Respondi pra ela eu não sou professor
                D         A7      D
Tudo quanto eu canto tem pouco valor

(Riff 4)
                 G                   A
Mas meus versos serve pra acalmar a dor
                 D          A7        D
De um peito que sofre ingratidão de amor

(Repique)

(Riff 1)
D                                A
 Afinal de conta fiz os seus mandado
                                 D
Cantei um versinho muito bem cantado

(Riff 2)
           G                A
Ela agradeceu com muitos agrado
              D           A7     D
Eu fiquei contente, fiquei  obrigado

(Riff 3)
 E                               A
Cantei um versinho do cabelo ondeado
            D         A7       D
Ela também tinha o cabelo cacheado

(Riff 4)
              G                      A
Deu cinco suspiro e me chamou de um lado
                D       A7       D
Perguntou se eu era solteiro ou casado

(Repique)

(Riff 1)
D                                      A
 Por isso que eu digo que um rapaz solteiro
                              D
Pra gozar a vida deve ser violeiro

(Riff 2)
             G                  A
Viajar embarcado sem gastar dinheiro
             D       A7       D
Se quer namorada tem até os mieiro

(Riff 3)
E                                A
Entrar no salão com os olhos morteiro
            D       A7         D
O cantar sereno de dois companheiro

(Riff 4)
             G                  A
Na mais bonitinha bate um desespero
                   D       A7      D
Da meia noite em diante tá no cativeiro

(Repique)

(Riff 1)
D                          A
 Menina menina você se aperiga
                                   D
Deixe de bobagem largue mão de intriga

(Riff 2)
              G                     A
Casar com violeiro é pra viver de briga
             D       A7         D
Você se aborrece da própria cantiga

(Riff 3)
  E                                A
Pra largá não pode porque Deus castiga
                D           A7             D
Pois eu sou violeiro e não faz mal que eu diga

(Riff 4)
              G                 A
Tome meus conselho avise suas amiga
               D            A7     D
Que toque de viola não enche a barriga

(Repique)

(Riff 1)
D                              A
 Eu falo a verdade não é intimação
                                   D
Nas festas que eu pego a viola na mão

(Riff 2)
              G                 A
Canto alguma moda é por inclinação
         D         A7         D
Toco na turina responde o bordão

(Riff 3)
 E                                 A
Dois peito sereno dentro de um salão
            D      A7        D
Já vê as morena mudar de feição

(Riff 4)
                G                A
Porque meus versinho dói no coração
               A7
Quem sofre nervosa

(O que acontece companheiro?)
             D
Morre de paixão

(Repique)

Clipes

Cifra Club Pro

Aproveite o Cifra Club com benefícios exclusivos e sem anúncios
Cifra Club Pro
Aproveite o Cifra Club com benefícios exclusivos e sem anúncios