B7
1234
X21202
E
123
022100
Tom: G
[Intro] B7  E


                     B7           
E|-6h7-7-7-7-7-7-7-7-6-5-4h5p4---
B|-----------------------------7-
G|-------------------------------
D|-------------------------------
A|-------------------------------
E|-------------------------------
              E                     
E|-------------------------------------4-7--7-4-5--5---4--4------------| 
B|5-4h5p4------------------------4-5-7---------------7------5-7--7-4-5-| 
G|--------6-4--4-6-4--4-6-4--4-6---------------------------------------| 
D|---------------------------------------------------------------------| 
A|---------------------------------------------------------------------| 
E|---------------------------------------------------------------------| 


B7
Domingo de tardezinha, eu estava 
mesmo à toa

Convidei meu companheiro pra ir 
pescar na lagoa

Levemo a rede de lance
                             E  B7
Ai, ai, fomos pescar de canoa
  E  B7  E


        B7
Eu levei meus apreparo pra dá uma 
pescada boa

Saímos cortando água na minha velha canoa A garça avistei de longe E B7 Ai, ai, chega perto ela voa E B7 E B7 Fui descendo rio abaixo remando minha canoa Eu entrei numa vazante fui saí noutra lagoa É o remanso do Rio Pardo E B7 Ai, ai, aonde o pintado amoa E B7 E B7 Pra peguá peixe dos bão dá trabalho a gente soa Eu jogo o timbo na agua, com isso os peixe atordoa Jogo a rede e dou um grito E B7 E Ai ai , o dourado amOntoa B7 E B7 O rio tava enchendo muito, tava cobrindo a taboa Acompanhei a maré, encostei minha canoa Cada remada que eu dava E Ai, ai dava um balanço na proa B7 E B7 E
Composição: N. Caporrino / Zé CarreiroColaboração e revisão: CLAUDIO ARANTESalescio bonettiJosafat ZdebskiEunápio Oliveirae mais 1