Telefone Mudo

Trio Parada Dura

C
123
X32010
D
123
XX0232
D/F#
1234
2X0232
Em7
123
022030
G
123
320003
Tom: G
[Intro] G  C  G  D  G
        C  G  D  G

#1t1##1t2#E|--------2/3-3-3-3-3-3-2-3-3-3-2-2-2-------|
B|--------3/5-5-5-5-5-5-3-5-5-5-3-3-3-0-----|
G|------------------------------------------|
D|------------------------------------------|
A|---0-2------------------------------------|
E|-3----------------------------------------|#/1t2##/1t1#

#2t1##2t2#E|------------------------------------------|
B|-----1-3-1-3-0-1--------------------------|
G|-2h4-------------2-4-2-4-2-2-2/4~---------|
D|------------------------------------------|
A|------------------------------------------|
E|------------------------------------------|#/2t2##/2t1#

#3t1##3t2#E|-------2/3-3-3-3-3-2-3-3-3-5-5-5-7-7-7----|
B|-------3/5-5-5-5-5-3-5-5-5-7-7-7-8-8-8----|
G|------------------------------------------|
D|------------------------------------------|
A|---0-2------------------------------------|
E|-3----------------------------------------|#/3t2##/3t1#

#4t1##4t2#E|-8--8--8--10-10-10-12-12-12---------------|
B|-10-10-10-12-12-12-13-13-13---------------|
G|------------------------------------------|
D|------------------------------------------|
A|------------------------------------------|
E|------------------------------------------|#/4t2##/4t1#

#5t1##5t2#E|-14-14-14-14-12-12-10-10--8--10-12-8--7---|
B|-15-15-15-15-13-13-12-12--10-12-13-10-8---|
G|------------------------------------------|
D|------------------------------------------|
A|------------------------------------------|
E|------------------------------------------|#/5t2##/5t1#

[Refrão]

     C                                  G
Eu quero que risque o meu nome da sua agenda
    D              C              G
Esqueça o meu telefone não me ligue mais              
     C                              G
Porque já estou cansado de ser o remédio
                 D                                   G    D/F#  Em7
Pra curar o seu tédio, quando seus amores não lhe satisfaz

[Primeira Parte]

    D                           C             G
Cansei de ser o seu palhaço, fazer o que sempre quis
                     D                  
Cansei de curar sua fossa
             C               G  D/F#  Em7
Quando você não se sentia feliz

[Segunda Parte]

    D                     C            G
Por isso é que decidi, o meu telefone cortar
                        D               C        D     G
Você vai discar várias vezes, telefone mudo não pode chamar

[Solo] G  C  G  D  G
       C  G  D  G

#6t1##6t2#E|--------2/3-3-3-3-3-3-2-3-3-3-2-2-2-------|
B|--------3/5-5-5-5-5-5-3-5-5-5-3-3-3-0-----|
G|------------------------------------------|
D|------------------------------------------|
A|---0-2------------------------------------|
E|-3----------------------------------------|#/6t2##/6t1#

#7t1##7t2#E|------------------------------------------|
B|-----1-3-1-3-0-1--------------------------|
G|-2h4-------------2-4-2-4-2-2-2/4~---------|
D|------------------------------------------|
A|------------------------------------------|
E|------------------------------------------|#/7t2##/7t1#

#8t1##8t2#E|-------2/3-3-3-3-3-2-3-3-3-5-5-5-7-7-7----|
B|-------3/5-5-5-5-5-3-5-5-5-7-7-7-8-8-8----|
G|------------------------------------------|
D|------------------------------------------|
A|---0-2------------------------------------|
E|-3----------------------------------------|#/8t2##/8t1#

#9t1##9t2#E|-8--8--8--10-10-10-12-12-12---------------|
B|-10-10-10-12-12-12-13-13-13---------------|
G|------------------------------------------|
D|------------------------------------------|
A|------------------------------------------|
E|------------------------------------------|#/9t2##/9t1#

#10t1##10t2#E|-14-14-14-14-12-12-10-10--8--10-12-8--7---|
B|-15-15-15-15-13-13-12-12--10-12-13-10-8---|
G|------------------------------------------|
D|------------------------------------------|
A|------------------------------------------|
E|------------------------------------------|#/10t2##/10t1#

[Refrão]

     C                                  G
Eu quero que risque o meu nome da sua agenda
    D              C              G
Esqueça o meu telefone não me ligue mais              
     C                              G
Porque já estou cansado de ser o remédio
                 D                                   G    D/F#  Em7
Pra curar o seu tédio, quando seus amores não lhe satisfaz

[Primeira Parte]

    D                           C             G
Cansei de ser o seu palhaço, fazer o que sempre quis
                     D                  
Cansei de curar sua fossa
             C               G  D/F#  Em7
Quando você não se sentia feliz

[Segunda Parte]

    D                     C            G
Por isso é que decidi, o meu telefone cortar
                        D               C        D     G
Você vai discar várias vezes, telefone mudo não pode chamar

[Primeira Parte]

    D                           C             G
Cansei de ser o seu palhaço, fazer o que sempre quis
                     D                  
Cansei de curar sua fossa
             C               G  D/F#  Em7
Quando você não se sentia feliz

[Segunda Parte]

    D                     C            G
Por isso é que decidi, o meu telefone cortar
                        D               C        D     G   D  G
Você vai discar várias vezes, telefone mudo não pode chamar
Composição: Franco / Peao CarreiroColaboração e revisão: Thiago AlmeidaMarcos PauloErick Vianalucas abele mais 8