Abolish Governmentsilent Majority

Tsol

Tom: G

~ means ring chord
pm means palm mute
v means vibrate string

#1t1#intro
#1t2#E-----------------------------|
B-----------------------------|
G-----------------------------|3x
D--9999999999-1414-1515-1212--|
A--7777777777-1212-1313-1010--|
E-----------------------------|#/1t2##/1t1#

#2t1##2t2#E----------------------------|
B----------------------------|
G----------------------------|1x
D--9999999999-1212-11111111--|
A--7777777777-1010--9-9-9-9--|
E----------------------------|#/2t2##/2t1#

#3t1#verse1
#3t2#E-----------------------------|
B-----------------------------|
G-----------------------------|3x
D--9999999999-1414-1515-1212--|
A--7777777777-1212-1313-1010--|
E-----------------------------|#/3t2##/3t1#
   \       palm mute       /

#4t1##4t2#E----------------------------|
B----------------------------|
G----------------------------|1x
D--9999999999-1212-11111111--|
A--7777777777-1010--9-9-9-9--|
E----------------------------|#/4t2##/4t1#
   \palm mute/

#5t1#drum solo riff
#5t2#E--------|
B--------|
G--------|
D--9~~~--
A--7~~~--
E--------#/5t2##/5t1#

#6t1#verse2
#6t2#E---------------------------|
B---------------------------|
G---------------------------|2x
D-----9999------------------|
A--77-7777-1010-10-1010-10--|
E--55-------8-8--8--8-8--8--|#/6t2##/6t1#
           \pm/    \pm/

#7t1##7t2#E----------------------------|
B----------------------------|
G----------------------------|4x
D-----9999-------------------|
A--77-7777-1010101010101010--|
E--55-------8-8-8-8-8-8-8-8--|#/7t2##/7t1#
           \  palm mute   /

#8t1#chorus
#8t2#E---------------------------------------------------------------------------|
B---------------------------------------------------------------------------|
G---------------------------------------------------------------------------|
D-----------5-555555-7-777777-----------------------------------------------|
A--5-555555-3-333333-5-555555-7-777777-7-777777-9-999999-10-10101010101010--|
E--3-333333-------------------5-555555-5-555555-7-777777--8--8-8-8-8-8-8-8--|#/8t2##/8t1#

#9t1#verse3
#9t2#E---------------------------------------------------------------------------|
B---------------------------------------------------------------------------|
G------------9-12-9---------------9-8v------------9-12-9---------------9-12-|
D----9999-10--------12----9999-12---------9999-12--------12----9999-12------|
A-77-7777--------------77-7777---------77-7777--------------77-7777---------|
E-55-------------------55--------------55-------------------55--------------|#/9t2##/9t1#
bend and slide last note up the neck

#10t1#outro
#10t2#E--------------------------------------------|
B--------------------------------------------|
G--------------------------------------------|
D-----9999--12-12-1212-----9999--14-14-1414--|
A--77-7777--10-10-1010--77-7777--12-12-1212--|
E--55-------------------55-------------------|#/10t2##/10t1#

#11t1##11t2#E-----------------------------------|
B-----------------------------------|
G-----------------------------------|
D-----9999--15-15-1515-----9999-----|
A--77-7777--13-13-1313--77-7777-10--|
E--55-------------------55-------8--|#/11t2##/11t1#

timing:
intro......1x
verse1.....2x
drum solo..14x
verse2.....1x
chorus.....1x
verse2.....1x
chorus.....1x
verse3.....1x
chorus.....2x
outro......1x
Composição: Jack Grisham / TSOLColaboração e revisão: