Again

Tsol

Tom: G
Tabbed by: Ryan Armstrong
Email:

Tuning: Standard
  
so just list to the song to get it right. 

#1t1#  Intro
#1t2#e|---------------------------------------------------------|
B|---------------------------------------------------------|
G|-9-9-9-9-9-9-9-9-9-9-9-9-9-9-9-9-9-9-9-9-4-4-4-4-4-4-4-4-|
D|---------------------------------------------------------|
A|-7-7-7-7-7-7-7-7-7-7-7-7-7-7-7-7-7-7-7-7-2-2-2-2-2-2-2-2-|
E|---------------------------------------------------------|#/1t2##/1t1#
#2t1#  Continued
#2t2#e|---------------------------------------------------------|
B|---------------------------------------------------------|
G|-9-9-9-9-9-9-9-9-9-9-9-9-9-9-9-9-9-9-9-9-4-4-4-4-4-4-4-4-|
D|---------------------------------------------------------|
A|-7-7-7-7-7-7-7-7-7-7-7-7-7-7-7-7-7-7-7-7-2-2-2-2-2-2-2-2-|
E|---------------------------------------------------------|#/2t2##/2t1#
#3t1#  Continued
#3t2#e|---------------------------------------------------------------------|
B|---------------------------------------------------------------------|
G|-9-9-9-9-9-9-9-9-9-9\11-11-11-11-11-11-11-11/9-9-9-9-9-9-9-9-9-9\8-8-|
D|---------------------------------------------------------------------|
A|-7-7-7-7-7-7-7-7-7-7\-9--9--9--9--9--9--9--9/7-7-7-7-7-7-7-7-7-7\8-8-|
E|---------------------------------------------------------------------|#/3t2##/3t1#
#4t1#  Continued
#4t2#e|-------------------------------------------------------------------------|
B|-------------------------------------------------------------------------|
G|-8-8-8-8-8-8/16-16-16-16-16-16-16-16-16-16-16-16-16-16-16-16-16-16-16-16\|
D|-------------------------------------------------------------------------|
A|-6-6-6-6-6-6/14-14-14-14-14-14-14-14-14-14-14-14-14-14-14-14-14-14-14-14\|
E|-------------------------------------------------------------------------|#/4t2##/4t1#
#5t1#  Verse
#5t2#e|---------------------------------------------------------|
B|---------------------------------------------------------|
G|-9-9-9-x-9-x-9-9-9-x-9-x-9-9-----------------------------|play x2
D|-9-9-9-x-9-x-9-9-9-x-9-x-9-9-9-9-9-x-9-x-9-9-9-x-9-x-9-9-|
A|-7-7-7-7-7-7-7-7-7-7-7-7-7-7-9-9-9-x-9-x-9-9-9-x-9-x-9-9-|
E|-----------------------------7-7-7-7-7-7-7-7-7-7-7-7-7-7-|#/5t2##/5t1#
  i think this is right like the intro just listen to the song 
  to get it right.
  
#6t1#  Chorus
#6t2#e|-----------------------------------------------|
B|-----------------------------------------------|
G|-----------------------------------------------|
D|-7-7-7-7-7-5-5-5-5-5-2---7-7-7-7-7-5-5-5-5-5-2-|
A|-7-7-7-7-7-5-5-5-5-5-2---7-7-7-7-7-5-5-5-5-5-2-|
E|-5-5-5-5-5-3-3-3-3-3-0---5-5-5-5-5-3-3-3-3-3-0-|#/6t2##/6t1#
#7t1#  Continued
#7t2#e|-------------------------------|
B|-------------------------------|
G|---------------------4-4-4-4-4-|
D|-7-7-7-7-7-5-5-5-5-5-4-4-4-4-4-|
A|-7-7-7-7-7-5-5-5-5-5-2-2-2-2-2-|
E|-5-5-5-5-5-3-3-3-3-3-----------|#/7t2##/7t1#
#8t1#  Pre verse
#8t2#e|---------------------------------------------------------|
B|---------------------------------------------------------|
G|-9-9-9-9-9-9-9-9-9-9-9-9-9-9-9-9-9-9-9-9-4-4-4-4-4-4-4-4-|
D|---------------------------------------------------------|
A|-7-7-7-7-7-7-7-7-7-7-7-7-7-7-7-7-7-7-7-7-2-2-2-2-2-2-2-2-|
E|---------------------------------------------------------|#/8t2##/8t1#
#9t1#  Verse
#9t2#e|---------------------------------------------------------|
B|---------------------------------------------------------|
G|-9-9-9-x-9-x-9-9-9-x-9-x-9-9-----------------------------|play x4
D|-9-9-9-x-9-x-9-9-9-x-9-x-9-9-9-9-9-x-9-x-9-9-9-x-9-x-9-9-|
A|-7-7-7-7-7-7-7-7-7-7-7-7-7-7-9-9-9-x-9-x-9-9-9-x-9-x-9-9-|
E|-----------------------------7-7-7-7-7-7-7-7-7-7-7-7-7-7-|#/9t2##/9t1#
#10t1#  Chorus
#10t2#e|-----------------------------------------------|
B|-----------------------------------------------|
G|-----------------------------------------------|
D|-7-7-7-7-7-5-5-5-5-5-2---7-7-7-7-7-5-5-5-5-5-2-|
A|-7-7-7-7-7-5-5-5-5-5-2---7-7-7-7-7-5-5-5-5-5-2-|
E|-5-5-5-5-5-3-3-3-3-3-0---5-5-5-5-5-3-3-3-3-3-0-|#/10t2##/10t1#
#11t1#  Continued
#11t2#e|-------------------------------|
B|-------------------------------|
G|---------------------4-4-4-4-4-|
D|-7-7-7-7-7-5-5-5-5-5-4-4-4-4-4-|
A|-7-7-7-7-7-5-5-5-5-5-2-2-2-2-2-|
E|-5-5-5-5-5-3-3-3-3-3-----------|#/11t2##/11t1#
#12t1#  Bridge
#12t2#e|---------------------------------------------------------------------|
B|---------------------------------------------------------------------|
G|-9-9-9-9-9-9-9-9-9-9\11-11-11-11-11-11-11-11/9-9-9-9-9-9-9-9-9-9\8-8-|
D|---------------------------------------------------------------------|
A|-7-7-7-7-7-7-7-7-7-7\-9--9--9--9--9--9--9--9/7-7-7-7-7-7-7-7-7-7\8-8-|
E|---------------------------------------------------------------------|#/12t2##/12t1#
#13t1#  Continued
#13t2#e|-------------------------------------------------------------------------|
B|-------------------------------------------------------------------------|
G|-8-8-8-8-8-8/16-16-16-16-16-16-16-16-16-16-16-16-16-16-16-16-16-16-16-16\|
D|-------------------------------------------------------------------------|
A|-6-6-6-6-6-6/14-14-14-14-14-14-14-14-14-14-14-14-14-14-14-14-14-14-14-14\|
E|-------------------------------------------------------------------------|#/13t2##/13t1#
#14t1#  Chorus
#14t2#e|-----------------------------------------------|
B|-----------------------------------------------|
G|-----------------------------------------------|
D|-7-7-7-7-7-5-5-5-5-5-2---7-7-7-7-7-5-5-5-5-5-2-|
A|-7-7-7-7-7-5-5-5-5-5-2---7-7-7-7-7-5-5-5-5-5-2-|
E|-5-5-5-5-5-3-3-3-3-3-0---5-5-5-5-5-3-3-3-3-3-0-|#/14t2##/14t1#
#15t1#  Continued
#15t2#e|---------------------------------|
B|---------------------------------|
G|---------------------4-4-4-4-4---|
D|-7-7-7-7-7-5-5-5-5-5-4-4-4-4-4-2-|
A|-7-7-7-7-7-5-5-5-5-5-2-2-2-2-2-2-|
E|-5-5-5-5-5-3-3-3-3-3-----------0-|#/15t2##/15t1#

there it is i hope you like it, its a cool song just listen to it to get it right i'll see ya later.

| /  slide up
| \  slide down
| h  hammer-on
| p  pull-off
| ~  vibrato
| +  harmonic
| x  Mute note
===============================================================================
Composição: Colaboração e revisão: