American

Tsol

A5
12
X022XX
D5
134
X577XX
Tom: G
Tabbed by: Ryan Armstrong
Email:

Tuning: Standard

So i was on the internet looking for some american tabs and could'nt find any anywhere,
so i desided to do my own, i think this is right its a realy cool song of theirs one of
my favourites so i hope you enjoy it.

#1t1#The chords used for the intro, solo 1 and outro are:
  A5   D5
#1t2#e|-0----0-|
B|-0----3-|
G|-2----2-|
D|-2----0-|
A|-0----0-|
E|--------|#/1t2##/1t1#

#2t1#  Intro
#2t2#e|-------------0-------------0---------------------------(0)-|
B|-------0-----0-------3-------3-------3-play--finish-on-(0)-|
G|-----2---2---------2---2-------2---2----x4-------------(2)-|
D|---2-------2-----0-------0-------0---------------------(2)-|
A|-0-------------0---------------------------------------(0)-|
E|-----------------------------------------------------------|#/2t2##/2t1#
#3t1#  Verse
#3t2#e|-------------------------------------------------|
B|-------------------------------------------------|
G|-4-4-4-4-4-4-4-4-4-4-4-4-7-7-7-7-7-7-------------|Play
D|-4-4-4-4-4-4-4-4-4-4-4-4-7-7-7-7-7-7-7-7-7-7-7-7-| x4
A|-2-2-2-2-2-2-2-2-2-2-2-2-5-5-5-5-5-5-7-7-7-7-7-7-|
E|-------------------------------------5-5-5-5-5-5-|#/3t2##/3t1#
#4t1#  Chorus
#4t2#e|---------------------------------|
B|---------------------------------|
G|-9-9-9-9---------7-7-7-7---------|Play
D|-9-9-9-9-9-9-9-9-7-7-7-7-7-7-7-7-| x2
A|-7-7-7-7-9-9-9-9-5-5-5-5-7-7-7-7-|
E|---------7-7-7-7---------5-5-5-5-|#/4t2##/4t1#
#5t1#  Verse
#5t2#e|-------------------------------------------------|
B|-------------------------------------------------|
G|-4-4-4-4-4-4-4-4-4-4-4-4-7-7-7-7-7-7-------------|Play
D|-4-4-4-4-4-4-4-4-4-4-4-4-7-7-7-7-7-7-7-7-7-7-7-7-| x2
A|-2-2-2-2-2-2-2-2-2-2-2-2-5-5-5-5-5-5-7-7-7-7-7-7-|
E|-------------------------------------5-5-5-5-5-5-|#/5t2##/5t1#
#6t1#  Bridge solo 1
#6t2#e|-------------0-------------0-----------|
B|-------0-----0-------3-------3-------3-|
G|-----2---2---------2---2-------2---2---|Play 
D|---2-------2-----0-------0-------0-----| x2
A|-0-------------0-----------------------|
E|---------------------------------------|#/6t2##/6t1#
#7t1#  Continued Solo 2
#7t2#e|-------------------------------------------------------|
B|-------------------------------------------------------|
G|-4----4---4---4-4\2--7-6-------4----4---4---4-4\2------|keep picking
D|---4----4---4------------7-7/9---4----4---4-------2/16-|from the 2nd
A|-------------------------------------------------------|fret to 16th 
E|-------------------------------------------------------|fret#/7t2##/7t1#
#8t1#  Chorus
#8t2#e|---------------------------------|
B|---------------------------------|
G|-9-9-9-9---------7-7-7-7---------|Play
D|-9-9-9-9-9-9-9-9-7-7-7-7-7-7-7-7-| x2
A|-7-7-7-7-9-9-9-9-5-5-5-5-7-7-7-7-|
E|---------7-7-7-7---------5-5-5-5-|#/8t2##/8t1#
#9t1#  Outro
#9t2#e|-0-0-0---0-0-0---0-0-0---0-0-0---0-0-0-|
B|-0-0-0---3-3-3---0-0-0---3-3-3---0-0-0-|
G|-2-2-2---2-2-2---2-2-2---2-2-2---2-2-2-|
D|-2-2-2---0-0-0---2-2-2---0-0-0---2-2-2-|
A|-0-0-0---0-0-0---0-0-0---0-0-0---0-0-0-|
E|---------------------------------------|#/9t2##/9t1#

Thats it, i think the outros right but maybe not if i come up with a better
version i'll let you kow I'll see ya later.


| /  slide up
| \  slide down
| h  hammer-on
| p  pull-off
| ~  vibrato
| +  harmonic
| x  Mute note
============================================================================
Composição: Colaboração e revisão: