busca

Code Blue

Tsol

Tom: C

Date: Wed, 18 Mar 1998 00:32:53 -0800 (PST)
From: garbageman fiend 
To: *

Code blue as it appears on The T.S.O.L. album dance with me. Written
by T.S.O.L. in 1980 transcribed by Daniel
(*)(remember high e at top)

Intro 1:
E|--------------------------|
B|--------------------------|
G|--------------------------|
D|--7--7--7-7---10-9-9-8-7--|
A|--7--7--7-7---10-9-9-8-7--|
E|--------------------------|

Intro 2/Bridge : 3 times as intro 4 times as bridge.
E|------------------------| Did the best I could to
B|------------------------| show timing, but listening
G|------------------------| to the album is the best
D|--5-----5-----5-----5---| way to get it right.......
A|-7-7--6--6--5--5--6--6--|
E|------------------------|

Intro last chord: one time
E|------------------------| let the last note ring for
B|------------------------| for just a second, and then
G|------------------------| move into riff one.
D|--5-----5-----5-----5---|
A|-7-7--6--6--5--5--6-----|
E|------------------------|


Riff 1:
E|---------------------------------------|about 2 times
B|---------------------------------------|a phrase.
G|---------------------------------------|
D|------------------------12-------------|
A|-12--12-12-12-12-12-12--10--10--10-10--|
E|-10--10-10-10-10-10-10-------8---8--8--|


Riff 2: 4 times with alternate endings
E|---------------------------------------------------->
B|---------------------------------------------------->
G|---------------------------------------------------->
D|-11--11-11-11-11-11-11------------------------------>
A|--9---9--9--9--9--9--9--9--9-9-9-9-9-9--11--11-11-11>
E|------------------------7--7-7-7-7-7-7---9---9--9--9>
     |Ending one

  P......      P......       P.....       P.....

Clipes

Cifra Club Pro

Aproveite o Cifra Club com benefícios exclusivos e sem anúncios
7 dias grátis
Cifra Club Pro
Aproveite o Cifra Club com benefícios exclusivos e sem anúncios
7 dias grátis