Im Tired Of Life

Tsol

Tom: G
#1t1#Intro:
#1t2#-----------------------|
-----------------------|
-2\--------------------|
-2\--------------------|
-0\--------------------|
-----------------------|#/1t2##/1t1#

Use the whammy(tremolo) bar while playing the intro E chord.


#2t1#Verse:
#2t2#-----------------------------------0--0------------------0----|
-------0----------3---------------0---0----0-0-----------0----|
-----0----------3----3----------0-----0--0-0-0-----------0----|
---2----------2--------2-------2---------2-2-2-------2---2----|
-0----------3----------------2-----------2-2-2------2----2----|
--------------------------0--------------0-0-0----0------0----|#/2t2##/2t1#


#3t1##3t2#-----------------------------------0--0------------------0----|
-------0----------3---------------0---0----0-0-----------0----|
-----0----------3----3----------0-----0--0-0-0-----------0----|
---2----------2--------2-------2---------2-2-2-------2---2----|
-0----------3----------------2-----------2-2-2------2----2----|
--------------------------0--------------0-0-0----0------0----|#/3t2##/3t1#

#4t1##4t2#-----------------------------------0--0------------------0----|
-------0----------3---------------0---0----0-0-----------0----|
-----0----------3----3----------0-----0--0-0-0-----------0----|
---2----------2--------2-------2---------2-2-2-------2---2----|
-0----------3----------------2-----------2-2-2------2----2----|
--------------------------0--------------0-0-0----0------0----|#/4t2##/4t1#


#5t1##5t2#-----------------------------------0--0------------------0----|
-------0----------3---------------0---0----0-0-----------0----|
-----0----------3----3----------0-----0--0-0-0-----------0----|
---2----------2--------2-------2---------2-2-2-------2---2----|
-0----------3----------------2-----------2-2-2------2----2----|
--------------------------0--------------0-0-0----0------0----|#/5t2##/5t1#


#6t1#Chorus:
#6t2#----3--3--3-------------------------3--3--3---------------------|
----0--0--0-------------------------0--0--0---------------------|
----0--0--0----2--2-2-2--2-2-2------0--0--0----2--2-2-2--2-2-2--|
----0--0--0----2--2-2-2--2-2-2------0--0--0----2--2-2-2--2-2-2--|
---------------0--0-0-0--0-0-0-----------------0--0-0-0--0-0-0--|
-3--3--3--3----------------------3--3--3--3---------------------|#/6t2##/6t1#


#7t1##7t2#----------------------------------------------------------------|
----------------------------------------------------------------|
-------0----------0-------------0------------------0------------|
----2----2------2---2---------2----2---2---------2----2---2-----|
-3------------2----------0-----------0-----0------------0-------|
----------------------------------------------------------------|#/7t2##/7t1#


#8t1##8t2#----3--3--3----------------------0---------------|
----0--0--0-----------------------0--------------|
----0--0--0----2--2-2-2--2-2-2-----0-------------|
----0--0--0----2--2-2-2--2-2-2------2------------|
---------------0--0-0-0--0-0-0-------2-----------|
-3--3--3--3---------------------------0----------|#/8t2##/8t1#


#9t1#Verse:
#9t2#-----------------------------------0--0------------------0----|
-------0----------3---------------0---0----0-0-----------0----|
-----0----------3----3----------0-----0--0-0-0-----------0----|
---2----------2--------2-------2---------2-2-2-------2---2----|
-0----------3----------------2-----------2-2-2------2----2----|
--------------------------0--------------0-0-0----0------0----|#/9t2##/9t1#


#10t1##10t2#-----------------------------------0--0------------------0----|
-------0----------3---------------0---0----0-0-----------0----|
-----0----------3----3----------0-----0--0-0-0-----------0----|
---2----------2--------2-------2---------2-2-2-------2---2----|
-0----------3----------------2-----------2-2-2------2----2----|
--------------------------0--------------0-0-0----0------0----|#/10t2##/10t1#

#11t1##11t2#-----------------------------------0--0------------------0----|
-------0----------3---------------0---0----0-0-----------0----|
-----0----------3----3----------0-----0--0-0-0-----------0----|
---2----------2--------2-------2---------2-2-2-------2---2----|
-0----------3----------------2-----------2-2-2------2----2----|
--------------------------0--------------0-0-0----0------0----|#/11t2##/11t1#


#12t1##12t2#-----------------------------------0--0------------------0----|
-------0----------3---------------0---0----0-0-----------0----|
-----0----------3----3----------0-----0--0-0-0-----------0----|
---2----------2--------2-------2---------2-2-2-------2---2----|
-0----------3----------------2-----------2-2-2------2----2----|
--------------------------0--------------0-0-0----0------0----|#/12t2##/12t1#


#13t1#Chorus:
#13t2#----3--3--3-------------------------3--3--3---------------------|
----0--0--0-------------------------0--0--0---------------------|
----0--0--0----2--2-2-2--2-2-2------0--0--0----2--2-2-2--2-2-2--|
----0--0--0----2--2-2-2--2-2-2------0--0--0----2--2-2-2--2-2-2--|
---------------0--0-0-0--0-0-0-----------------0--0-0-0--0-0-0--|
-3--3--3--3----------------------3--3--3--3---------------------|#/13t2##/13t1#


#14t1##14t2#----------------------------------------------------------------|
----------------------------------------------------------------|
-------0----------0-------------0------------------0------------|
----2----2------2---2---------2----2---2---------2----2---2-----|
-3------------2----------0-----------0-----0------------0-------|
----------------------------------------------------------------|#/14t2##/14t1#


#15t1##15t2#----3--3--3----------------------0---------------|
----0--0--0-----------------------0--------------|
----0--0--0----2--2-2-2--2-2-2-----0-------------|
----0--0--0----2--2-2-2--2-2-2------2------------|
---------------0--0-0-0--0-0-0-------2-----------|
-3--3--3--3---------------------------0----------|#/15t2##/15t1#

#16t1#Verse:
#16t2#-----------------------------------0--0------------------0----|
-------0----------3---------------0---0----0-0-----------0----|
-----0----------3----3----------0-----0--0-0-0-----------0----|
---2----------2--------2-------2---------2-2-2-------2---2----|
-0----------3----------------2-----------2-2-2------2----2----|
--------------------------0--------------0-0-0----0------0----|#/16t2##/16t1#


#17t1##17t2#-----------------------------------0--0------------------0----|
-------0----------3---------------0---0----0-0-----------0----|
-----0----------3----3----------0-----0--0-0-0-----------0----|
---2----------2--------2-------2---------2-2-2-------2---2----|
-0----------3----------------2-----------2-2-2------2----2----|
--------------------------0--------------0-0-0----0------0----|#/17t2##/17t1#

#18t1##18t2#-----------------------------------0--0------------------0----|
-------0----------3---------------0---0----0-0-----------0----|
-----0----------3----3----------0-----0--0-0-0-----------0----|
---2----------2--------2-------2---------2-2-2-------2---2----|
-0----------3----------------2-----------2-2-2------2----2----|
--------------------------0--------------0-0-0----0------0----|#/18t2##/18t1#


#19t1##19t2#-----------------------------------0--0------------------0----|
-------0----------3---------------0---0----0-0-----------0----|
-----0----------3----3----------0-----0--0-0-0-----------0----|
---2----------2--------2-------2---------2-2-2-------2---2----|
-0----------3----------------2-----------2-2-2------2----2----|
--------------------------0--------------0-0-0----0------0----|#/19t2##/19t1#


#20t1#Chorus:
#20t2#----3--3--3-------------------------3--3--3---------------------|
----0--0--0-------------------------0--0--0---------------------|
----0--0--0----2--2-2-2--2-2-2------0--0--0----2--2-2-2--2-2-2--|
----0--0--0----2--2-2-2--2-2-2------0--0--0----2--2-2-2--2-2-2--|
---------------0--0-0-0--0-0-0-----------------0--0-0-0--0-0-0--|
-3--3--3--3----------------------3--3--3--3---------------------|#/20t2##/20t1#


#21t1##21t2#----------------------------------------------------------------|
----------------------------------------------------------------|
-------0----------0-------------0------------------0------------|
----2----2------2---2---------2----2---2---------2----2---2-----|
-3------------2----------0-----------0-----0------------0-------|
----------------------------------------------------------------|#/21t2##/21t1#


Outro(Fade Out)

#22t1##22t2#----------------------------|
----------------------------|
-------------12-------------|
---------14-----14------14--|
-12-----------------12------|
----------------------------|#/22t2##/22t1#
Composição: Colaboração e revisão: