Politics

Tsol

Tom: G
. = staccato note
b = full bend
/ = slide out of downwards

#1t1#Intro & Bridge: x4
#1t2#|--------------------|
|--------------------|
|---7--5-------------|
|---7--5--7--5--7----|
|---5--3--7--5--7----|
|---------5--3--5----|#/1t2##/1t1#

#2t1#Verse: x5
#2t2#|-------------------------------------------------|
|*|
|---5--5---7--7--9--9-9-9-9-9-9-9-9-9-9-9-9-9-9---|
|---5--5---7--7--9--9-9-9-9-9-9-9-9-9-9-9-9-9-9---|
|---3--3---5--5--7--7-7-7-7-7-7-7-7-7-7-7-7-7-7---|
|-------------------------------------------------|#/2t2##/2t1#

#3t1#Chorus part 1: x3
#3t2#|----------------------------------------------|
|----------------------------------------------|
|--------------------11-11-11-11-11-11-11-11---|
|---9-9-9-9-9-9-9-9--11-11-11-11-11-11-11-11---|
|---9-9-9-9-9-9-9-9---9--9--9--9--9--9--9--9---|
|---7-7-7-7-7-7-7-7----------------------------|#/3t2##/3t1#

#4t1#Chorus part 2: x1
#4t2#|---------------------------------------|
|---------------------------------------|
|*|
|---9-9-9-9-9-9-9-9--7--7--7--7--7--7---|
|---9-9-9-9-9-9-9-9--7--7--7--7--7--7---|
|---7-7-7-7-7-7-7-7--5--5--5--5--5--5---|#/4t2##/4t1#

Bridge x4

Verse x5

Chorus part 1 x3

Chorus part 2 x1

Bridge x4

#5t1#Interlude: x1
#5t2#|----------------------------------------------|
|*|
|---5--5---7--7--14b-14b-14b-14b-14b-14b-14b---|
|---5--5---7--7--------------------------------|
|---3--3---5--5--------------------------------|
|----------------------------------------------|#/5t2##/5t1#

Verse x4

Chorus part 1 x3

Chorus part 2 x1

#6t1#End: x1
#6t2#|------------|
|------------|
|------------|
|---9---9/---|
|---9---9/---|
|---7---7/---|#/6t2##/6t1#
Composição: Jack Grisham / TSOLColaboração e revisão: