Red Shadows

Tsol

Tom: G
============================================================================
............................................................................
............................................................................
============================================================================


By:Fernando Amaya

:Standard tuning is fine:
(~)= (optional)
Intro
#1t1##1t2#e|---------------------------------------------------------------------------|
B|-0-0-0-7----8-8-8-7-5-3----------------------------------------------------|
G|------------------------5-~ ~ ~--------------------------------------------|
D|---------------------------------------------------------------------------|
A|---------------------------------------------------------------------------|
E|---------------------------------------------------------------------------|#/1t2##/1t1#

#2t1#after intro (2x)
#2t2#e|---------------------------------------------------------------------------|
B|-0-0-0-7----8-8-8-7-5-3---------0-0-0-7---8-8-10-8-7-----------------------|
G|---------------------------------------------------------------------------|
D|---------------------------------------------------------------------------|
A|---------------------------------------------------------------------------|
E|---------------------------------------------------------------------------|#/2t2##/2t1#

#3t1#chorus (4x)
#3t2#e|---------------------------------------------------------------------------|
B|--0-0-0-7----8-8-8-7-5-3---------0-0-0-7---8-8-10-8-7----------------------|
G|---------------------------------------------------------------------------|
D|---------------------------------------------------------------------------|
A|---------------------------------------------------------------------------|
E|---------------------------------------------------------------------------|#/3t2##/3t1#

#4t1#after chorus(1x)
#4t2#e|--------7-6-6-7-6-------------7-6-6-7--------------------------------------|
B|--5-7-8---------------5-7-8------------------------------------------------|
G|---------------------------------------------------------------------------|
D|---------------------------------------------------------------------------|
A|---------------------------------------------------------------------------|
E|---------------------------------------------------------------------------|#/4t2##/4t1#

#5t1##5t2#e|----------12-11-11-12-11-----------7-6-6-7---------------------------------|
B|-10-12-13------------------5-7-8-------------------------------------------|
G|---------------------------------------------------------------------------|
D|---------------------------------------------------------------------------|
A|---------------------------------------------------------------------------|
E|---------------------------------------------------------------------------|#/5t2##/5t1#

repeat it all through the whole song, ir you can figure out the rythm then you
pretty much get the whole song. sorry if this bad its my second tab

#6t1##6t2#-------------------------------------------------------------------------------#/6t2##/6t1#

 
Composição: Colaboração e revisão: